0
SECTION
2
HEADER
9
$INSUNITS
70
4
0
ENDSEC
0
SECTION
2
TABLES
0
TABLE
2
LTYPE
0
LTYPE
72
65
70
64
2
CONTINUOUS
3
______
73
0
40
0
0
ENDTAB
0
TABLE
2
LAYER
0
ENDTAB
0
ENDSEC
0
SECTION
2
ENTITIES
0
LINE
8
front_outsideCutPath
10
0
20
203
11
0
21
3
0
LINE
8
front_outsideCutPath
10
0
20
3
11
163
21
3
0
LINE
8
front_outsideCutPath
10
163
20
3
11
163
21
203
0
LINE
8
front_outsideCutPath
10
163
20
203
11
0
21
203
0
LINE
8
front_labelLayer
10
54.495166
20
108.1338901
11
54.495166
21
106.0804721
0
LINE
8
front_labelLayer
10
54.495166
20
106.0804721
11
50.0540527
21
106.0804721
0
LINE
8
front_labelLayer
10
50.0540527
20
106.0804721
11
50.0540527
21
90.6877963
0
LINE
8
front_labelLayer
10
50.0540527
20
90.6877963
11
47.4116699
21
90.6877963
0
LINE
8
front_labelLayer
10
47.4116699
20
90.6877963
11
47.4116699
21
106.0804721
0
LINE
8
front_labelLayer
10
47.4116699
20
106.0804721
11
44.291748
21
106.0804721
0
LINE
8
front_labelLayer
10
44.291748
20
106.0804721
11
44.291748
21
107.2743198
0
LINE
8
front_labelLayer
10
44.291748
20
107.2743198
11
47.4116699
21
108.2293979
0
LINE
8
front_labelLayer
10
47.4116699
20
108.2293979
11
47.4116699
21
109.200394
0
LINE
8
front_labelLayer
10
56.2779785
20
115.0741245
11
55.5935059
21
112.9570346
0
LINE
8
front_labelLayer
10
50.0540527
20
109.2640659
11
50.0540527
21
108.1338901
0
LINE
8
front_labelLayer
10
50.0540527
20
108.1338901
11
54.495166
21
108.1338901
0
ARC
8
front_labelLayer
10
58.120329
20
109.3235055
40
10.7093667
50
167.577599
51
180.6586686
0
ARC
8
front_labelLayer
10
53.0844319
20
110.4975849
40
5.5391658
50
141.7433915
51
168.2322098
0
ARC
8
front_labelLayer
10
52.2644848
20
110.9255359
40
4.6335058
50
98.2551448
51
139.6203385
0
ARC
8
front_labelLayer
10
52.9844106
20
107.5997507
40
8.0316361
50
89.6696888
51
99.9314263
0
ARC
8
front_labelLayer
10
52.9864188
20
107.1222823
40
8.5090863
50
81.5640937
51
89.7017449
0
ARC
8
front_labelLayer
10
52.3882087
20
102.9488459
40
12.7251443
50
75.9740022
51
81.6564759
0
ARC
8
front_labelLayer
10
51.3616196
20
98.6908114
40
17.1050733
50
73.2963764
51
76.0946032
0
ARC
8
front_labelLayer
10
51.6201677
20
100.7563788
40
12.8313451
50
71.9613342
51
76.5918247
0
ARC
8
front_labelLayer
10
52.6156489
20
104.9793049
40
8.4926924
50
76.5183341
51
83.0217044
0
ARC
8
front_labelLayer
10
52.9623959
20
107.7678042
40
5.6827247
50
83.0760917
51
89.7926736
0
ARC
8
front_labelLayer
10
52.9509848
20
109.8870968
40
3.5635383
50
89.4859008
51
103.4197355
0
ARC
8
front_labelLayer
10
52.6297065
20
111.1214144
40
2.2885074
50
102.7677264
51
144.3380371
0
ARC
8
front_labelLayer
10
53.2769502
20
110.7049712
40
3.0574097
50
145.0688489
51
162.1801646
0
ARC
8
front_labelLayer
10
55.4961294
20
109.9583291
40
5.3987044
50
161.8437689
51
171.7847004
0
ARC
8
front_labelLayer
10
59.1156674
20
109.4146865
40
9.058806
50
171.652787
51
178.4383408
0
ARC
8
front_labelLayer
10
62.5298971
20
109.2691047
40
12.4758455
50
178.1973207
51
180.0231411
0
LINE
8
front_labelLayer
10
67.722998
20
108.2612338
11
67.3568848
21
105.8098667
0
LINE
8
front_labelLayer
10
60.3211426
20
100.047562
11
60.3211426
21
90.6877963
0
LINE
8
front_labelLayer
10
60.3211426
20
90.6877963
11
57.6787598
21
90.6877963
0
LINE
8
front_labelLayer
10
57.6787598
20
90.6877963
11
57.6787598
21
108.1338901
0
LINE
8
front_labelLayer
10
57.6787598
20
108.1338901
11
59.8595215
21
108.1338901
0
LINE
8
front_labelLayer
10
59.8595215
20
108.1338901
11
60.1619629
21
104.9025424
0
LINE
8
front_labelLayer
10
60.1619629
20
104.9025424
11
60.2893066
21
104.9025424
0
ARC
8
front_labelLayer
10
65.664864
20
96.3215029
40
12.1307769
50
84.9922862
51
90.128092
0
ARC
8
front_labelLayer
10
65.9561829
20
99.5854274
40
8.8538835
50
78.4892047
51
85.0265799
0
ARC
8
front_labelLayer
10
64.8254584
20
94.4426358
40
11.6456883
50
77.4453773
51
81.636032
0
ARC
8
front_labelLayer
10
65.3328487
20
97.9400143
40
8.1117052
50
81.5884388
51
87.1916728
0
ARC
8
front_labelLayer
10
65.4430488
20
99.8509535
40
6.1976837
50
87.3436685
51
89.9659818
0
ARC
8
front_labelLayer
10
65.417445
20
101.4702626
40
4.5784672
50
89.6335381
51
137.0880797
0
ARC
8
front_labelLayer
10
66.5410855
20
100.2066932
40
6.2638071
50
135.6208762
51
138.8376907
0
ARC
8
front_labelLayer
10
66.3764356
20
100.3674122
40
6.0340795
50
138.9575734
51
174.542228
0
ARC
8
front_labelLayer
10
68.3416289
20
100.0599174
40
8.0204959
50
173.6907634
51
180.0882635
0
ARC
8
front_labelLayer
10
68.0637613
20
100.5224499
40
8.9234161
50
139.4139333
51
150.6032867
0
ARC
8
front_labelLayer
10
66.4637878
20
101.8934578
40
6.8163855
50
124.2321487
51
139.4161009
0
ARC
8
front_labelLayer
10
65.6082942
20
103.184821
40
5.2675109
50
89.6796657
51
124.4405642
0
ARC
8
front_labelLayer
10
72.3958955
20
99.3347473
40
13.6489947
50
349.1761915
51
0.3862592
0
ARC
8
front_labelLayer
10
76.9911959
20
98.4186647
40
8.9634931
50
330.2507039
51
349.411651
0
ARC
8
front_labelLayer
10
78.4053937
20
97.6836193
40
7.3712198
50
318.1439761
51
329.7566278
0
ARC
8
front_labelLayer
10
78.6606346
20
97.4790696
40
7.044645
50
278.895916
51
317.9979117
0
ARC
8
front_labelLayer
10
78.0029721
20
100.6299933
40
10.2606536
50
269.7502808
51
279.803318
0
ARC
8
front_labelLayer
10
77.8963101
20
98.8546427
40
8.4854318
50
253.5436972
51
270.4182508
0
ARC
8
front_labelLayer
10
77.6138497
20
97.7620087
40
7.3576412
50
238.811555
51
253.2428273
0
ARC
8
front_labelLayer
10
77.5226867
20
97.5786813
40
7.1536213
50
207.7947026
51
238.675798
0
ARC
8
front_labelLayer
10
78.830916
20
98.3798959
40
8.685084
50
205.6560489
51
208.4461078
0
ARC
8
front_labelLayer
10
79.8383311
20
98.7996372
40
9.7750829
50
188.9102485
51
205.3171434
0
ARC
8
front_labelLayer
10
83.2338512
20
99.3747279
40
13.2187679
50
179.7744648
51
189.0932842
0
ARC
8
front_labelLayer
10
83.7347468
20
99.5196882
40
13.719876
50
169.2442979
51
180.3880769
0
ARC
8
front_labelLayer
10
79.0755873
20
100.4406338
40
8.9707701
50
150.7111518
51
169.469537
0
ARC
8
front_labelLayer
10
77.5882367
20
101.2044422
40
7.3001498
50
138.175948
51
150.2287397
0
ARC
8
front_labelLayer
10
77.3408244
20
101.3943025
40
6.9892111
50
99.175934
51
137.9832789
0
ARC
8
front_labelLayer
10
78.0217867
20
98.189623
40
10.2627382
50
89.7326284
51
100.0759845
0
ARC
8
front_labelLayer
10
78.1578885
20
99.5736095
40
8.8790782
50
73.5222766
51
90.5692246
0
ARC
8
front_labelLayer
10
78.6785939
20
101.4654713
40
6.9173212
50
41.1445669
51
73.213384
0
ARC
8
front_labelLayer
10
77.6846098
20
100.6111555
40
8.2279563
50
13.5014359
51
41.0703431
0
ARC
8
front_labelLayer
10
73.8443585
20
99.6062135
40
12.1969684
50
1.1277223
51
13.88
0
ARC
8
front_labelLayer
10
70.5364439
20
99.4289463
40
15.5081365
50
359.9919271
51
1.5419941
0
ARC
8
front_labelLayer
10
86.1338617
20
99.3580902
40
13.3809617
50
179.7059572
51
187.9160808
0
ARC
8
front_labelLayer
10
81.2261428
20
98.6531
40
8.4229458
50
187.7639211
51
200.0976931
0
ARC
8
front_labelLayer
10
78.5225032
20
97.6624819
40
5.5435381
50
200.0845903
51
216.9131629
0
ARC
8
front_labelLayer
10
77.5352273
20
96.9575206
40
4.3308617
50
217.3009567
51
261.7099097
0
ARC
8
front_labelLayer
10
77.9935537
20
99.1446009
40
6.5626275
50
260.5033109
51
270.2476892
0
ARC
8
front_labelLayer
10
78.0810355
20
98.7193268
40
6.1375769
50
269.4481693
51
284.7255746
0
ARC
8
front_labelLayer
10
78.5669121
20
96.9173705
40
4.2713187
50
284.5662295
51
322.6333836
0
ARC
8
front_labelLayer
10
77.4309113
20
97.7380807
40
5.6723976
50
323.0089235
51
342.6390536
0
ARC
8
front_labelLayer
10
74.1816983
20
98.8000174
40
9.0905676
50
342.3615706
51
353.7537581
0
ARC
8
front_labelLayer
10
69.3880323
20
99.3778295
40
13.918743
50
353.5363144
51
0.2014253
0
ARC
8
front_labelLayer
10
70.122497
20
99.4940534
40
13.1843641
50
359.7075643
51
7.8972748
0
ARC
8
front_labelLayer
10
74.9509762
20
100.186261
40
8.3066006
50
7.7439954
51
20.0690248
0
ARC
8
front_labelLayer
10
77.6415935
20
101.1736168
40
5.4405465
50
20.0257115
51
37.4350458
0
ARC
8
front_labelLayer
10
78.5343232
20
101.8070834
40
4.3468016
50
37.95777
51
80.4006139
0
ARC
8
front_labelLayer
10
78.0270148
20
99.5435261
40
6.6643923
50
79.3453366
51
90.3174731
0
ARC
8
front_labelLayer
10
77.9330809
20
99.9195087
40
6.2885656
50
89.4805967
51
103.8805019
0
ARC
8
front_labelLayer
10
77.4046791
20
101.9316623
40
4.2085169
50
103.4685236
51
142.3118881
0
ARC
8
front_labelLayer
10
78.4319328
20
101.2092239
40
5.4633969
50
142.9025678
51
162.3749596
0
ARC
8
front_labelLayer
10
81.6688249
20
100.1305384
40
8.875085
50
162.0653167
51
173.1674783
0
ARC
8
front_labelLayer
10
86.716
20
99.4868036
40
13.9630529
50
173.0086243
51
180.246378
0
LINE
8
front_labelLayer
10
105.2575684
20
90.6877963
11
102.6151855
21
90.6877963
0
LINE
8
front_labelLayer
10
102.6151855
20
90.6877963
11
102.6151855
21
101.9736362
0
LINE
8
front_labelLayer
10
93.3190918
20
99.8406284
11
93.3190918
21
90.6877963
0
LINE
8
front_labelLayer
10
93.3190918
20
90.6877963
11
90.676709
21
90.6877963
0
LINE
8
front_labelLayer
10
90.676709
20
90.6877963
11
90.676709
21
108.1338901
0
LINE
8
front_labelLayer
10
90.676709
20
108.1338901
11
92.8256348
21
108.1338901
0
LINE
8
front_labelLayer
10
92.8256348
20
108.1338901
11
93.2554199
21
105.7461948
0
LINE
8
front_labelLayer
10
93.2554199
20
105.7461948
11
93.3827637
21
105.7461948
0
LINE
8
front_labelLayer
10
105.2575684
20
102.069144
11
105.2575684
21
90.6877963
0
ARC
8
front_labelLayer
10
95.145953
20
102.0164725
40
7.4693554
50
359.6714107
51
8.6877185
0
ARC
8
front_labelLayer
10
97.9143098
20
102.4555143
40
4.6664719
50
8.4931454
51
22.6579925
0
ARC
8
front_labelLayer
10
99.3208267
20
103.0400201
40
3.143341
50
22.702427
51
42.3419605
0
ARC
8
front_labelLayer
10
99.4789257
20
103.1111386
40
2.9790697
50
43.3790833
51
71.5386206
0
ARC
8
front_labelLayer
10
98.8877122
20
101.4591328
40
4.7334256
50
71.082819
51
84.3691033
0
ARC
8
front_labelLayer
10
98.6223286
20
99.2027503
40
7.0050898
50
84.0197873
51
90.1510786
0
ARC
8
front_labelLayer
10
98.5470916
20
98.2107529
40
7.9972645
50
89.5933022
51
100.3717984
0
ARC
8
front_labelLayer
10
97.9819321
20
101.1759537
40
4.9788149
50
100.1176459
51
118.1602545
0
ARC
8
front_labelLayer
10
97.412393
20
102.2927742
40
3.725487
50
118.5439448
51
139.1926715
0
ARC
8
front_labelLayer
10
97.9089972
20
101.9595484
40
4.3197465
50
140.1519067
51
160.3146456
0
ARC
8
front_labelLayer
10
100.9078533
20
100.8363056
40
7.5218584
50
159.9534472
51
171.3801025
0
ARC
8
front_labelLayer
10
105.8065087
20
100.0488648
40
12.4832799
50
171.1765807
51
178.3217603
0
ARC
8
front_labelLayer
10
110.2471519
20
99.8476119
40
16.9280616
50
178.0810591
51
180.023637
0
ARC
8
front_labelLayer
10
97.9029616
20
102.8834036
40
5.3504918
50
116.9442865
51
147.6525646
0
ARC
8
front_labelLayer
10
98.4598702
20
101.9519424
40
6.4336194
50
115.8071789
51
117.6067724
0
ARC
8
front_labelLayer
10
98.7445939
20
101.2880674
40
7.1553098
50
94.32267
51
115.5454354
0
ARC
8
front_labelLayer
10
98.9158567
20
99.8001319
40
8.65212
50
89.9578826
51
94.7108983
0
ARC
8
front_labelLayer
10
98.9866413
20
98.0198571
40
10.4325913
50
80.5585432
51
90.3538214
0
ARC
8
front_labelLayer
10
99.6386105
20
101.7963262
40
6.6003727
50
65.1094337
51
80.7638106
0
ARC
8
front_labelLayer
10
100.4007338
20
103.4844137
40
4.7483574
50
46.5584574
51
64.8782286
0
ARC
8
front_labelLayer
10
100.4617347
20
103.6602611
40
4.5793748
50
19.3848759
51
45.5997182
0
ARC
8
front_labelLayer
10
97.8124233
20
102.6661921
40
7.408671
50
6.963361
51
19.8363448
0
ARC
8
front_labelLayer
10
93.7263295
20
102.116811
40
11.5313375
50
359.7631563
51
7.2115622
0
LINE
8
front_labelLayer
10
118.708252
20
92.8685581
11
118.708252
21
90.846976
0
LINE
8
front_labelLayer
10
110.8766113
20
95.7019565
11
110.8766113
21
106.0804721
0
LINE
8
front_labelLayer
10
110.8766113
20
106.0804721
11
108.3774902
21
106.0804721
0
LINE
8
front_labelLayer
10
108.3774902
20
106.0804721
11
108.3774902
21
107.3539096
0
LINE
8
front_labelLayer
10
108.3774902
20
107.3539096
11
110.8766113
21
108.4522495
0
LINE
8
front_labelLayer
10
110.8766113
20
108.4522495
11
111.9908691
21
112.1770542
0
LINE
8
front_labelLayer
10
111.9908691
20
112.1770542
11
113.5189941
21
112.1770542
0
LINE
8
front_labelLayer
10
113.5189941
20
112.1770542
11
113.5189941
21
108.1338901
0
LINE
8
front_labelLayer
10
113.5189941
20
108.1338901
11
118.5809082
21
108.1338901
0
LINE
8
front_labelLayer
10
118.5809082
20
108.1338901
11
118.5809082
21
106.0804721
0
LINE
8
front_labelLayer
10
118.5809082
20
106.0804721
11
113.5189941
21
106.0804721
0
LINE
8
front_labelLayer
10
113.5189941
20
106.0804721
11
113.5189941
21
95.8133823
0
ARC
8
front_labelLayer
10
116.3386778
20
101.2281345
40
8.6779548
50
269.880356
51
278.3028257
0
ARC
8
front_labelLayer
10
116.4207246
20
100.5568014
40
8.0018256
50
278.4156516
51
279.007961
0
ARC
8
front_labelLayer
10
115.4477574
20
106.7724751
40
14.2931833
50
278.9589299
51
280.5104877
0
ARC
8
front_labelLayer
10
116.3754866
20
101.7946963
40
9.2296928
50
280.484792
51
282.6267853
0
ARC
8
front_labelLayer
10
117.1894392
20
98.1785433
40
5.5230693
50
282.5875943
51
285.5795713
0
ARC
8
front_labelLayer
10
117.5987259
20
96.6735243
40
3.9634348
50
285.7236086
51
286.256656
0
ARC
8
front_labelLayer
10
117.5973185
20
93.1966638
40
2.5990778
50
287.9888516
51
295.304805
0
ARC
8
front_labelLayer
10
116.9704533
20
95.0932192
40
4.5965311
50
283.3069408
51
288.1197983
0
ARC
8
front_labelLayer
10
116.3082029
20
97.8556844
40
7.4372605
50
280.0070323
51
283.3734985
0
ARC
8
front_labelLayer
10
115.865184
20
100.2598546
40
9.8818549
50
279.1862958
51
280.1143472
0
ARC
8
front_labelLayer
10
115.5931543
20
101.8071691
40
11.4527726
50
275.5260441
51
279.293954
0
ARC
8
front_labelLayer
10
115.8996489
20
98.6058225
40
8.2367899
50
270.8932382
51
275.5483989
0
ARC
8
front_labelLayer
10
115.9381377
20
97.1455763
40
6.7761393
50
270.0032777
51
270.7603182
0
ARC
8
front_labelLayer
10
115.8318977
20
97.2701321
40
6.9015188
50
253.784794
51
270.8852483
0
ARC
8
front_labelLayer
10
115.0142511
20
94.4816457
40
3.9956404
50
190.3817658
51
253.8772389
0
ARC
8
front_labelLayer
10
119.1817815
20
95.6084727
40
8.3056964
50
179.3551002
51
192.847764
0
ARC
8
front_labelLayer
10
118.8397796
20
95.7801052
40
5.3208895
50
179.6416675
51
189.7505882
0
ARC
8
front_labelLayer
10
116.9613983
20
95.4450731
40
3.4129232
50
189.5479506
51
205.7873617
0
ARC
8
front_labelLayer
10
116.1894679
20
95.0891123
40
2.5630569
50
206.1294428
51
221.4083859
0
ARC
8
front_labelLayer
10
116.1029117
20
95.0234356
40
2.4547115
50
221.5949218
51
262.3505134
0
ARC
8
front_labelLayer
10
116.3087652
20
96.0820124
40
3.5318335
50
261.3266164
51
270.1912896
0
LINE
8
left_outsideCutPath
10
166
20
203
11
166
21
3
0
LINE
8
left_outsideCutPath
10
166
20
3
11
232
21
3
0
LINE
8
left_outsideCutPath
10
232
20
3
11
232
21
203
0
LINE
8
left_outsideCutPath
10
232
20
203
11
166
21
203
0
LINE
8
left_labelLayer
10
190.8370117
20
108.0435968
11
190.8370117
21
98.0146906
0
LINE
8
left_labelLayer
10
190.8370117
20
98.0146906
11
189.7670898
21
98.0146906
0
LINE
8
left_labelLayer
10
189.7670898
20
98.0146906
11
189.7670898
21
108.0435968
0
LINE
8
left_labelLayer
10
189.7670898
20
108.0435968
11
190.8370117
21
108.0435968
0
LINE
8
left_labelLayer
10
198.6874023
20
102.0301203
11
198.6874023
21
101.3533625
0
LINE
8
left_labelLayer
10
198.6874023
20
101.3533625
11
193.8211914
21
101.3533625
0
LINE
8
left_labelLayer
10
198.3844726
20
99.2973078
11
198.3844726
21
98.3434015
0
LINE
8
left_labelLayer
10
193.8469726
20
102.2234796
11
197.5401367
21
102.2234796
0
ARC
8
left_labelLayer
10
196.054762
20
102.0433056
40
4.1576701
50
256.0087944
51
270.4848039
0
ARC
8
left_labelLayer
10
195.7520013
20
100.8679253
40
2.9439763
50
223.5465689
51
256.1956973
0
ARC
8
left_labelLayer
10
195.9190197
20
100.9893174
40
3.1487827
50
194.0877302
51
223.0538203
0
ARC
8
left_labelLayer
10
197.4493744
20
101.4078122
40
4.7350931
50
181.3574722
51
194.4919865
0
ARC
8
left_labelLayer
10
198.8244814
20
101.4875165
40
6.1118839
50
179.9887739
51
181.799066
0
ARC
8
left_labelLayer
10
198.3306064
20
101.5264007
40
5.6181352
50
168.9539257
51
180.384345
0
ARC
8
left_labelLayer
10
196.4957501
20
101.9000088
40
3.7457203
50
149.4070977
51
169.1853767
0
ARC
8
left_labelLayer
10
195.9845409
20
102.1701064
40
3.1683276
50
140.1056215
51
148.9066962
0
ARC
8
left_labelLayer
10
195.6704501
20
102.4596819
40
2.7417005
50
92.4762578
51
140.5386427
0
ARC
8
left_labelLayer
10
195.8104015
20
101.425444
40
3.782216
50
89.9637727
51
93.9176008
0
ARC
8
left_labelLayer
10
195.8437982
20
101.9481602
40
3.2596466
50
74.2126016
51
90.5449969
0
ARC
8
left_labelLayer
10
196.0479602
20
102.7003842
40
2.4802656
50
41.2064618
51
74.0232694
0
ARC
8
left_labelLayer
10
195.6613164
20
102.3657726
40
2.9915885
50
11.5994316
51
41.1495949
0
ARC
8
left_labelLayer
10
194.332831
20
102.0593988
40
4.3546697
50
359.6147704
51
12.0336365
0
ARC
8
left_labelLayer
10
198.1146022
20
101.4391506
40
4.2942678
50
181.1446942
51
190.8007045
0
ARC
8
left_labelLayer
10
196.5996351
20
101.1403565
40
2.7501631
50
190.6005746
51
206.0275213
0
ARC
8
left_labelLayer
10
195.929355
20
100.8234771
40
2.0088348
50
206.2950096
51
222.5558148
0
ARC
8
left_labelLayer
10
195.8699655
20
100.7923816
40
1.9441339
50
223.0644934
51
258.1401492
0
ARC
8
left_labelLayer
10
196.1064076
20
101.7659558
40
2.945685
50
257.5311858
51
270.4319205
0
ARC
8
left_labelLayer
10
196.1090464
20
104.4711671
40
5.6508463
50
270.1983952
51
292.2090402
0
ARC
8
left_labelLayer
10
195.8376011
20
105.2506958
40
6.4752903
50
291.8255082
51
293.1613378
0
ARC
8
left_labelLayer
10
195.8246784
20
104.2344194
40
6.423133
50
287.9023052
51
293.4861486
0
ARC
8
left_labelLayer
10
196.2906208
20
102.7968234
40
4.9119144
50
281.9935949
51
287.8851266
0
ARC
8
left_labelLayer
10
196.4035523
20
102.3909324
40
4.4914922
50
275.9054204
51
281.6603774
0
ARC
8
left_labelLayer
10
196.1774911
20
104.5009747
40
6.6136
50
271.911964
51
275.9727031
0
ARC
8
left_labelLayer
10
196.0949795
20
106.6025091
40
8.7167262
50
269.9668843
51
271.9931439
0
ARC
8
left_labelLayer
10
195.7793711
20
102.2027932
40
2.1090677
50
89.442231
51
106.2089396
0
ARC
8
left_labelLayer
10
195.652489
20
102.665431
40
1.6294178
50
106.4657256
51
137.9176365
0
ARC
8
left_labelLayer
10
196.0162682
20
102.3459731
40
2.1135192
50
138.0994901
51
160.5866353
0
ARC
8
left_labelLayer
10
196.9513549
20
102.0019698
40
3.1098119
50
160.3353307
51
172.5315348
0
ARC
8
left_labelLayer
10
197.8718505
20
101.8544696
40
4.0417584
50
172.1544175
51
174.7616358
0
ARC
8
left_labelLayer
10
193.8942691
20
102.2441898
40
3.6459264
50
359.6745376
51
8.9224397
0
ARC
8
left_labelLayer
10
195.1970466
20
102.4564565
40
2.3260042
50
8.7342245
51
23.277169
0
ARC
8
left_labelLayer
10
195.8155245
20
102.7160763
40
1.655282
50
23.4821545
51
39.7072029
0
ARC
8
left_labelLayer
10
195.9674453
20
102.8297626
40
1.4658077
50
40.0822855
51
80.6243336
0
ARC
8
left_labelLayer
10
195.8110692
20
102.1129426
40
2.1988468
50
79.6468243
51
90.2909781
0
LINE
8
left_labelLayer
10
203.6954101
20
105.0787531
11
203.6954101
21
104.2473078
0
LINE
8
left_labelLayer
10
203.6954101
20
104.2473078
11
201.897168
21
104.2473078
0
LINE
8
left_labelLayer
10
201.897168
20
104.2473078
11
201.897168
21
98.0146906
0
LINE
8
left_labelLayer
10
201.897168
20
98.0146906
11
200.8272461
21
98.0146906
0
LINE
8
left_labelLayer
10
200.8272461
20
98.0146906
11
200.8272461
21
104.2473078
0
LINE
8
left_labelLayer
10
200.8272461
20
104.2473078
11
199.5639648
21
104.2473078
0
LINE
8
left_labelLayer
10
199.5639648
20
104.2473078
11
199.5639648
21
104.7307062
0
LINE
8
left_labelLayer
10
199.5639648
20
104.7307062
11
200.8272461
21
105.117425
0
LINE
8
left_labelLayer
10
200.8272461
20
105.117425
11
200.8272461
21
105.510589
0
LINE
8
left_labelLayer
10
204.4172851
20
107.8889093
11
204.1401367
21
107.0316828
0
LINE
8
left_labelLayer
10
201.897168
20
105.5363703
11
201.897168
21
105.0787531
0
LINE
8
left_labelLayer
10
201.897168
20
105.0787531
11
203.6954101
21
105.0787531
0
ARC
8
left_labelLayer
10
205.1632667
20
105.560439
40
4.3363071
50
167.5776113
51
180.6586839
0
ARC
8
left_labelLayer
10
203.1241901
20
106.035833
40
2.2428497
50
141.7433716
51
168.2322224
0
ARC
8
left_labelLayer
10
202.7921897
20
106.2091126
40
1.8761436
50
98.2551475
51
139.6203373
0
ARC
8
left_labelLayer
10
203.0836922
20
104.8624833
40
3.2520659
50
89.6696698
51
99.9314311
0
ARC
8
left_labelLayer
10
203.0845063
20
104.6691378
40
3.4454042
50
81.5641109
51
89.701745
0
ARC
8
left_labelLayer
10
202.8422889
20
102.979304
40
5.1524956
50
75.9739848
51
81.6564771
0
ARC
8
left_labelLayer
10
202.42662
20
101.2551988
40
6.9259558
50
73.2963818
51
76.0946186
0
ARC
8
left_labelLayer
10
202.5312939
20
102.091519
40
5.1955359
50
71.9613381
51
76.591809
0
ARC
8
left_labelLayer
10
202.9343677
20
103.8013753
40
3.4388208
50
76.5183925
51
83.0216455
0
ARC
8
left_labelLayer
10
203.0747801
20
104.93052
40
2.3009824
50
83.076116
51
89.7926925
0
ARC
8
left_labelLayer
10
203.0701599
20
105.788632
40
1.4429135
50
89.485944
51
103.419697
0
ARC
8
left_labelLayer
10
202.9400709
20
106.2884256
40
0.9266348
50
102.7677369
51
144.3380486
0
ARC
8
left_labelLayer
10
203.2021412
20
106.1198066
40
1.2379652
50
145.0688376
51
162.1802127
0
ARC
8
left_labelLayer
10
204.1007261
20
105.8174785
40
2.1859969
50
161.8438039
51
171.7846515
0
ARC
8
left_labelLayer
10
205.5662485
20
105.5973611
40
3.6679433
50
171.6527496
51
178.4383767
0
ARC
8
left_labelLayer
10
206.9486887
20
105.5384069
40
5.0515214
50
178.1972618
51
180.0230995
0
LINE
8
left_labelLayer
10
208.2329101
20
98.8976984
11
208.2329101
21
98.0791437
0
LINE
8
left_labelLayer
10
205.0618164
20
100.044964
11
205.0618164
21
104.2473078
0
LINE
8
left_labelLayer
10
205.0618164
20
104.2473078
11
204.0499023
21
104.2473078
0
LINE
8
left_labelLayer
10
204.0499023
20
104.2473078
11
204.0499023
21
104.7629328
0
LINE
8
left_labelLayer
10
204.0499023
20
104.7629328
11
205.0618164
21
105.2076593
0
LINE
8
left_labelLayer
10
205.0618164
20
105.2076593
11
205.5129883
21
106.7158625
0
LINE
8
left_labelLayer
10
205.5129883
20
106.7158625
11
206.1317383
21
106.7158625
0
LINE
8
left_labelLayer
10
206.1317383
20
106.7158625
11
206.1317383
21
105.0787531
0
LINE
8
left_labelLayer
10
206.1317383
20
105.0787531
11
208.1813476
21
105.0787531
0
LINE
8
left_labelLayer
10
208.1813476
20
105.0787531
11
208.1813476
21
104.2473078
0
LINE
8
left_labelLayer
10
208.1813476
20
104.2473078
11
206.1317383
21
104.2473078
0
LINE
8
left_labelLayer
10
206.1317383
20
104.2473078
11
206.1317383
21
100.0900812
0
ARC
8
left_labelLayer
10
207.2734495
20
102.28257
40
3.5137855
50
269.8803761
51
278.302816
0
ARC
8
left_labelLayer
10
207.3067898
20
102.010079
40
3.2393424
50
278.4152745
51
279.0077046
0
ARC
8
left_labelLayer
10
206.9125125
20
104.528659
40
5.7885943
50
278.9590813
51
280.5103253
0
ARC
8
left_labelLayer
10
207.28841
20
102.511681
40
3.7368889
50
280.4847473
51
282.6269053
0
ARC
8
left_labelLayer
10
207.6179062
20
101.0478629
40
2.2364467
50
282.5875991
51
285.5794264
0
ARC
8
left_labelLayer
10
207.7836955
20
100.4381654
40
1.6046283
50
285.7240669
51
286.2571801
0
ARC
8
left_labelLayer
10
207.78308
20
99.0305621
40
1.0523992
50
287.9888923
51
295.3047629
0
ARC
8
left_labelLayer
10
207.5292561
20
99.7985026
40
1.861194
50
283.3069561
51
288.1197571
0
ARC
8
left_labelLayer
10
207.2610865
20
100.9171453
40
3.0115282
50
280.007099
51
283.3734286
0
ARC
8
left_labelLayer
10
207.0818573
20
101.8897234
40
4.0004614
50
279.186246
51
280.1144784
0
ARC
8
left_labelLayer
10
206.9715945
20
102.516915
40
4.63722
50
275.5260099
51
279.2940002
0
ARC
8
left_labelLayer
10
207.0956842
20
101.2207756
40
3.3351549
50
270.893237
51
275.5483794
0
ARC
8
left_labelLayer
10
207.111275
20
100.6282026
40
2.7424183
50
270.0031494
51
270.7605472
0
ARC
8
left_labelLayer
10
207.0682511
20
100.6799288
40
2.794478
50
253.7847875
51
270.885254
0
ARC
8
left_labelLayer
10
206.7371796
20
99.5508504
40
1.6178665
50
190.3817637
51
253.8772416
0
ARC
8
left_labelLayer
10
208.4246521
20
100.0071122
40
3.3630487
50
179.3551107
51
192.8477504
0
ARC
8
left_labelLayer
10
208.2861783
20
100.0766077
40
2.1544822
50
179.6416866
51
189.7505529
0
ARC
8
left_labelLayer
10
207.525591
20
99.9409484
40
1.3819155
50
189.5479184
51
205.7873815
0
ARC
8
left_labelLayer
10
207.2130311
20
99.7968161
40
1.0377981
50
206.1294056
51
221.408409
0
ARC
8
left_labelLayer
10
207.177987
20
99.7702255
40
0.9939322
50
221.5949245
51
262.3505174
0
ARC
8
left_labelLayer
10
207.2613394
20
100.1988617
40
1.4300775
50
261.3266514
51
270.1912627
0
LINE
8
top_outsideCutPath
10
235
20
79
11
235
21
3
0
LINE
8
top_outsideCutPath
10
235
20
3
11
398
21
3
0
LINE
8
top_outsideCutPath
10
398
20
3
11
398
21
79
0
LINE
8
top_outsideCutPath
10
398
20
79
11
235
21
79
0
LINE
8
top_labelLayer
10
309.9241559
20
38.8328125
11
309.9241559
21
37.8902344
0
LINE
8
top_labelLayer
10
306.2725934
20
40.1539063
11
306.2725934
21
44.9929688
0
LINE
8
top_labelLayer
10
306.2725934
20
44.9929688
11
305.107359
21
44.9929688
0
LINE
8
top_labelLayer
10
305.107359
20
44.9929688
11
305.107359
21
45.5867188
0
LINE
8
top_labelLayer
10
305.107359
20
45.5867188
11
306.2725934
21
46.0988281
0
LINE
8
top_labelLayer
10
306.2725934
20
46.0988281
11
306.7921246
21
47.8355469
0
LINE
8
top_labelLayer
10
306.7921246
20
47.8355469
11
307.5046246
21
47.8355469
0
LINE
8
top_labelLayer
10
307.5046246
20
47.8355469
11
307.5046246
21
45.9503906
0
LINE
8
top_labelLayer
10
307.5046246
20
45.9503906
11
309.8647809
21
45.9503906
0
LINE
8
top_labelLayer
10
309.8647809
20
45.9503906
11
309.8647809
21
44.9929688
0
LINE
8
top_labelLayer
10
309.8647809
20
44.9929688
11
307.5046246
21
44.9929688
0
LINE
8
top_labelLayer
10
307.5046246
20
44.9929688
11
307.5046246
21
40.2058594
0
ARC
8
top_labelLayer
10
308.8193252
20
42.7305233
40
4.0461571
50
269.8803361
51
278.3028182
0
ARC
8
top_labelLayer
10
308.8577956
20
42.4161192
40
3.7295002
50
278.4154933
51
279.0080269
0
ARC
8
top_labelLayer
10
308.4038599
20
45.3160354
40
6.6647264
50
278.9589298
51
280.5103898
0
ARC
8
top_labelLayer
10
308.8365605
20
42.9943314
40
4.3030461
50
280.4846949
51
282.6268719
0
ARC
8
top_labelLayer
10
309.215925
20
41.3089288
40
2.5754772
50
282.5877444
51
285.5793685
0
ARC
8
top_labelLayer
10
309.4075536
20
40.6044132
40
1.8453854
50
285.7229911
51
286.2567885
0
ARC
8
top_labelLayer
10
309.4061814
20
38.9857779
40
1.2118222
50
287.9887871
51
295.3048477
0
ARC
8
top_labelLayer
10
309.1138973
20
39.8700735
40
2.1431627
50
283.3068788
51
288.1197477
0
ARC
8
top_labelLayer
10
308.8051296
20
41.1580409
40
3.4676203
50
280.0069543
51
283.3734781
0
ARC
8
top_labelLayer
10
308.5982559
20
42.2808312
40
4.6092855
50
279.1864374
51
280.1141274
0
ARC
8
top_labelLayer
10
308.4717393
20
43.0003469
40
5.3397802
50
275.5259809
51
279.2940056
0
ARC
8
top_labelLayer
10
308.6146233
20
41.5078863
40
3.8404966
50
270.8932291
51
275.5483531
0
ARC
8
top_labelLayer
10
308.6325608
20
40.8278725
40
3.1602944
50
270.0034237
51
270.7602564
0
ARC
8
top_labelLayer
10
308.583034
20
40.8850849
40
3.2178909
50
253.7848121
51
270.8852409
0
ARC
8
top_labelLayer
10
308.2017993
20
39.5849267
40
1.8629976
50
190.381759
51
253.8772481
0
ARC
8
top_labelLayer
10
310.1449431
20
40.1103191
40
3.8725952
50
179.3551066
51
192.8477689
0
ARC
8
top_labelLayer
10
309.9854661
20
40.1903421
40
2.48089
50
179.6416287
51
189.7506129
0
ARC
8
top_labelLayer
10
309.1096734
20
40.0341326
40
1.5913031
50
189.5479498
51
205.7873463
0
ARC
8
top_labelLayer
10
308.7497501
20
39.8681608
40
1.1950409
50
206.1294206
51
221.4084149
0
ARC
8
top_labelLayer
10
308.7093958
20
39.83754
40
1.1445275
50
221.5949023
51
262.3505171
0
ARC
8
top_labelLayer
10
308.8053773
20
40.3311099
40
1.6467442
50
261.3265959
51
270.1912707
0
ARC
8
top_labelLayer
10
312.2068381
20
41.8477223
40
6.3639468
50
349.1761933
51
0.386264
0
ARC
8
top_labelLayer
10
314.3494259
20
41.4205943
40
4.1793022
50
330.2507111
51
349.4116357
0
ARC
8
top_labelLayer
10
315.0088043
20
41.077877
40
3.4368962
50
318.143985
51
329.756608
0
ARC
8
top_labelLayer
10
315.1278198
20
40.9824974
40
3.2846182
50
278.8959079
51
317.997923
0
ARC
8
top_labelLayer
10
314.8211784
20
42.4516415
40
4.7841088
50
269.7502867
51
279.8033232
0
ARC
8
top_labelLayer
10
314.7714466
20
41.6238681
40
3.9563954
50
253.5436923
51
270.4182558
0
ARC
8
top_labelLayer
10
314.6397478
20
41.1144233
40
3.4305585
50
238.8115681
51
253.2428327
0
ARC
8
top_labelLayer
10
314.5972425
20
41.028944
40
3.3354313
50
207.7947061
51
238.6757962
0
ARC
8
top_labelLayer
10
315.2071504
20
41.402482
40
4.0494148
50
205.6560055
51
208.4461141
0
ARC
8
top_labelLayer
10
315.6769289
20
41.5982234
40
4.5577071
50
188.9102463
51
205.3171422
0
ARC
8
top_labelLayer
10
317.2601195
20
41.8663645
40
6.1633551
50
179.774469
51
189.0932837
0
ARC
8
top_labelLayer
10
317.493662
20
41.933953
40
6.3969965
50
169.2442973
51
180.3880777
0
ARC
8
top_labelLayer
10
315.3212954
20
42.3633507
40
4.1826918
50
150.7111587
51
169.4695376
0
ARC
8
top_labelLayer
10
314.627798
20
42.7194882
40
3.4037416
50
138.1759383
51
150.2287627
0
ARC
8
top_labelLayer
10
314.5124479
20
42.8080051
40
3.2587744
50
99.1759396
51
137.9832706
0
ARC
8
top_labelLayer
10
314.8299527
20
41.3137895
40
4.7850908
50
89.7326457
51
100.0759793
0
ARC
8
top_labelLayer
10
314.8934105
20
41.9590984
40
4.1399341
50
73.5222681
51
90.5692336
0
ARC
8
top_labelLayer
10
315.1361925
20
42.8411887
40
3.2252546
50
41.1445709
51
73.2133824
0
ARC
8
top_labelLayer
10
314.6727397
20
42.4428579
40
3.836348
50
13.501435
51
41.0703398
0
ARC
8
top_labelLayer
10
312.8821926
20
41.9742961
40
5.6869308
50
1.1277212
51
13.8799972
0
ARC
8
top_labelLayer
10
311.3400737
20
41.8916472
40
7.2305667
50
359.9919004
51
1.5420146
0
ARC
8
top_labelLayer
10
318.6122756
20
41.8586086
40
6.2389832
50
179.7059754
51
187.9160893
0
ARC
8
top_labelLayer
10
316.3240126
20
41.5299012
40
3.9272689
50
187.763934
51
200.0976875
0
ARC
8
top_labelLayer
10
315.0634149
20
41.0680164
40
2.5847178
50
200.084588
51
216.9131565
0
ARC
8
top_labelLayer
10
314.6030894
20
40.7393227
40
2.0192976
50
217.3009559
51
261.7099067
0
ARC
8
top_labelLayer
10
314.816787
20
41.7590584
40
3.0598682
50
260.5032986
51
270.2476999
0
ARC
8
top_labelLayer
10
314.8575762
20
41.5607788
40
2.8616928
50
269.448177
51
284.7255795
0
ARC
8
top_labelLayer
10
315.0841202
20
40.7206026
40
1.9915353
50
284.5662293
51
322.6333796
0
ARC
8
top_labelLayer
10
314.5544508
20
41.1032647
40
2.6447992
50
323.0089295
51
342.6390572
0
ARC
8
top_labelLayer
10
313.0394804
20
41.5984007
40
4.2385471
50
342.3615744
51
353.7537611
0
ARC
8
top_labelLayer
10
310.8043804
20
41.8678127
40
6.4897375
50
353.5363095
51
0.201403
0
ARC
8
top_labelLayer
10
311.1468648
20
41.9220019
40
6.147293
50
359.7075509
51
7.8972852
0
ARC
8
top_labelLayer
10
313.3981636
20
42.2447486
40
3.8730148
50
7.7439833
51
20.0690172
0
ARC
8
top_labelLayer
10
314.65268
20
42.7051081
40
2.5367002
50
20.0257232
51
37.4350319
0
ARC
8
top_labelLayer
10
315.0689261
20
43.0004694
40
2.0267285
50
37.9577614
51
80.4006289
0
ARC
8
top_labelLayer
10
314.8323905
20
41.9450721
40
3.1073192
50
79.3453488
51
90.3175019
0
ARC
8
top_labelLayer
10
314.788591
20
42.1203722
40
2.932092
50
89.4805842
51
103.8804895
0
ARC
8
top_labelLayer
10
314.5422208
20
43.0585534
40
1.9622544
50
103.4685342
51
142.311876
0
ARC
8
top_labelLayer
10
315.0211881
20
42.7217104
40
2.547354
50
142.9025826
51
162.3749487
0
ARC
8
top_labelLayer
10
316.5303957
20
42.2187702
40
4.1380608
50
162.0653003
51
173.1675038
0
ARC
8
top_labelLayer
10
318.8837123
20
41.9186196
40
6.5103978
50
173.0086367
51
180.2463712
0
LINE
8
top_labelLayer
10
321.9624371
20
38.8625
11
321.8733746
21
38.8625
0
LINE
8
top_labelLayer
10
321.9624371
20
37.5117188
11
321.9624371
21
34.1644531
0
LINE
8
top_labelLayer
10
321.9624371
20
34.1644531
11
320.7304059
21
34.1644531
0
LINE
8
top_labelLayer
10
320.7304059
20
34.1644531
11
320.7304059
21
45.9503906
0
LINE
8
top_labelLayer
10
320.7304059
20
45.9503906
11
321.732359
21
45.9503906
0
LINE
8
top_labelLayer
10
321.732359
20
45.9503906
11
321.9030621
21
44.8371094
0
LINE
8
top_labelLayer
10
321.9030621
20
44.8371094
11
321.9624371
21
44.8371094
0
LINE
8
top_labelLayer
10
321.9624371
20
42.1652344
11
321.9624371
21
41.890625
0
ARC
8
top_labelLayer
10
324.4947865
20
41.4045394
40
3.737019
50
255.7755315
51
270.318533
0
ARC
8
top_labelLayer
10
324.3881372
20
40.9307178
40
3.2515449
50
245.9801477
51
255.5456005
0
ARC
8
top_labelLayer
10
324.1815818
20
40.4503739
40
2.7287261
50
215.5850159
51
245.8361713
0
ARC
8
top_labelLayer
10
310.305802
20
37.4007458
40
11.6595652
50
2.9503326
51
7.2020962
0
ARC
8
top_labelLayer
10
312.1922479
20
37.506288
40
9.7701909
50
0.0318476
51
2.9016205
0
ARC
8
top_labelLayer
10
324.6763576
20
42.9311205
40
3.3163471
50
132.356519
51
144.919596
0
ARC
8
top_labelLayer
10
324.1683222
20
43.485369
40
2.5644917
50
115.4006198
51
132.3118152
0
ARC
8
top_labelLayer
10
324.3664889
20
43.0029545
40
3.0854006
50
97.7066393
51
114.8821545
0
ARC
8
top_labelLayer
10
324.5048868
20
42.105394
40
3.9934485
50
89.8468363
51
97.9474482
0
ARC
8
top_labelLayer
10
324.5536936
20
42.322533
40
3.7764876
50
74.1923442
51
90.5785299
0
ARC
8
top_labelLayer
10
324.8150052
20
43.2724529
40
2.7913182
50
38.0523433
51
74.0417342
0
ARC
8
top_labelLayer
10
324.0942592
20
42.7200318
40
3.6993817
50
16.3356092
51
37.9090587
0
ARC
8
top_labelLayer
10
322.2008536
20
42.1368509
40
5.6804436
50
4.5766441
51
16.608884
0
ARC
8
top_labelLayer
10
319.8697616
20
41.9045775
40
8.0227658
50
359.9003561
51
4.9017975
0
ARC
8
top_labelLayer
10
320.6689503
20
41.8480082
40
7.2236906
50
350.6562786
51
0.3380236
0
ARC
8
top_labelLayer
10
323.1872514
20
41.4196724
40
4.6692793
50
335.830591
51
350.8254849
0
ARC
8
top_labelLayer
10
324.2949997
20
40.9415525
40
3.4629215
50
321.3161562
51
335.5436139
0
ARC
8
top_labelLayer
10
324.7185038
20
40.5964618
40
2.9166456
50
274.0640033
51
321.4081016
0
ARC
8
top_labelLayer
10
324.5212087
20
41.8461809
40
4.1786067
50
269.922576
51
275.5481918
0
ARC
8
top_labelLayer
10
324.3120619
20
41.5024734
40
3.5499611
50
89.5904449
51
100.350192
0
ARC
8
top_labelLayer
10
324.0589229
20
42.8323127
40
2.1963043
50
100.086823
51
118.1918002
0
ARC
8
top_labelLayer
10
323.7996027
20
43.3380707
40
1.6280677
50
118.5569327
51
141.0243356
0
ARC
8
top_labelLayer
10
324.1947564
20
43.0593358
40
2.1108272
50
141.889049
51
160.5973045
0
ARC
8
top_labelLayer
10
325.5834861
20
42.5497723
40
3.5900184
50
160.2895952
51
171.2452934
0
ARC
8
top_labelLayer
10
327.8667862
20
42.181631
40
5.9027713
50
171.0868488
51
178.3247603
0
ARC
8
top_labelLayer
10
329.8039122
20
42.0895916
40
7.8418399
50
178.0663351
51
179.4473138
0
ARC
8
top_labelLayer
10
330.108469
20
41.8588178
40
8.146094
50
179.7762823
51
185.7075373
0
ARC
8
top_labelLayer
10
326.8967654
20
41.5278975
40
4.9174123
50
185.5924926
51
194.2050542
0
ARC
8
top_labelLayer
10
324.8393622
20
40.9939315
40
2.7919145
50
193.9430451
51
208.0218393
0
ARC
8
top_labelLayer
10
324.0069425
20
40.5704589
40
1.8582097
50
208.5537059
51
217.5605392
0
ARC
8
top_labelLayer
10
323.939114
20
40.5422438
40
1.7873425
50
218.1690389
51
253.804726
0
ARC
8
top_labelLayer
10
324.2706334
20
41.5643553
40
2.8615516
50
253.1382669
51
266.8482949
0
ARC
8
top_labelLayer
10
324.3635919
20
42.6606316
40
3.9614143
50
266.3775809
51
270.0510962
0
ARC
8
top_labelLayer
10
324.3951784
20
40.774955
40
2.0759258
50
269.2256905
51
292.0430342
0
ARC
8
top_labelLayer
10
324.4231871
20
40.6080322
40
1.911045
50
293.1429758
51
324.1353786
0
ARC
8
top_labelLayer
10
324.0070844
20
40.9603371
40
2.4550164
50
323.1615154
51
325.015292
0
ARC
8
top_labelLayer
10
323.5614145
20
41.2366823
40
2.9787429
50
325.5753689
51
344.1504731
0
ARC
8
top_labelLayer
10
322.0199642
20
41.6923497
40
4.5860718
50
343.9336423
51
355.1137257
0
ARC
8
top_labelLayer
10
320.0522284
20
41.8920142
40
6.5637382
50
354.8402355
51
0.1174469
0
ARC
8
top_labelLayer
10
320.3988495
20
41.936847
40
6.2171825
50
359.7108255
51
7.8610547
0
ARC
8
top_labelLayer
10
322.6594039
20
42.259084
40
3.9338113
50
7.714968
51
19.8859673
0
ARC
8
top_labelLayer
10
323.9026588
20
42.7081527
40
2.6119396
50
19.8991478
51
35.8980107
0
ARC
8
top_labelLayer
10
324.4572094
20
43.1281263
40
1.9165292
50
35.4481645
51
85.2266614
0
ARC
8
top_labelLayer
10
324.341361
20
42.4016267
40
2.6507199
50
84.0379239
51
90.0848156
0
LINE
8
back_outsideCutPath
10
0
20
406
11
0
21
206
0
LINE
8
back_outsideCutPath
10
0
20
206
11
163
21
206
0
LINE
8
back_outsideCutPath
10
163
20
206
11
163
21
406
0
LINE
8
back_outsideCutPath
10
163
20
406
11
0
21
406
0
LINE
8
back_labelLayer
10
50.3485352
20
296.0196134
11
50.1575195
21
296.0196134
0
LINE
8
back_labelLayer
10
50.1575195
20
296.0196134
11
49.6003906
21
293.7751798
0
LINE
8
back_labelLayer
10
49.6003906
20
293.7751798
11
47.7061523
21
293.7751798
0
LINE
8
back_labelLayer
10
47.7061523
20
293.7751798
11
47.7061523
21
318.5435392
0
LINE
8
back_labelLayer
10
47.7061523
20
318.5435392
11
50.3485352
21
318.5435392
0
LINE
8
back_labelLayer
10
50.3485352
20
318.5435392
11
50.3485352
21
312.526547
0
LINE
8
back_labelLayer
10
50.2211914
20
308.8972501
11
50.3485352
21
308.8972501
0
ARC
8
back_labelLayer
10
55.9035849
20
303.4321494
40
8.0760366
50
74.2393309
51
90.5623824
0
ARC
8
back_labelLayer
10
56.4375999
20
305.3912047
40
6.045611
50
38.5631278
51
74.0670405
0
ARC
8
back_labelLayer
10
55.0633371
20
304.3226357
40
7.7863265
50
16.4709315
51
38.4075262
0
ARC
8
back_labelLayer
10
51.1042952
20
303.0811966
40
11.9350814
50
5.1338482
51
16.7973385
0
ARC
8
back_labelLayer
10
46.1063846
20
302.550282
40
16.9606461
50
359.8779223
51
5.4093663
0
ARC
8
back_labelLayer
10
47.5743564
20
302.4227393
40
15.4929054
50
350.6562854
51
0.3380368
0
ARC
8
back_labelLayer
10
52.9754286
20
301.5040785
40
10.0143867
50
335.8305993
51
350.8254762
0
ARC
8
back_labelLayer
10
55.3512728
20
300.4786311
40
7.4270499
50
321.3161499
51
335.543618
0
ARC
8
back_labelLayer
10
56.2595729
20
299.7385046
40
6.2554369
50
274.0640029
51
321.4081054
0
ARC
8
back_labelLayer
10
55.8364249
20
302.4189002
40
8.962088
50
269.9225885
51
275.5481563
0
ARC
8
back_labelLayer
10
55.779757
20
301.4716181
40
8.0149215
50
255.7755377
51
270.318541
0
ARC
8
back_labelLayer
10
55.5510352
20
300.455429
40
6.9737428
50
245.9801681
51
255.5455733
0
ARC
8
back_labelLayer
10
55.1080169
20
299.4251855
40
5.8524002
50
215.5850174
51
245.8361692
0
ARC
8
back_labelLayer
10
-4.7432334
20
312.4799784
40
55.0917882
50
358.1123207
51
0.0484316
0
ARC
8
back_labelLayer
10
10.5900295
20
311.9651934
40
39.7498904
50
355.7238572
51
358.1259045
0
ARC
8
back_labelLayer
10
17.3667587
20
311.4993981
40
32.9573197
50
355.4714935
51
355.6529304
0
ARC
8
back_labelLayer
10
55.2764643
20
305.4608721
40
6.0077599
50
95.1835159
51
145.1108951
0
ARC
8
back_labelLayer
10
55.8045247
20
302.4830973
40
9.0247216
50
89.8743469
51
96.8145459
0
ARC
8
back_labelLayer
10
55.3869655
20
301.8700868
40
7.4253186
50
89.5731344
51
100.732424
0
ARC
8
back_labelLayer
10
54.8372857
20
304.6472624
40
4.5944167
50
100.4469486
51
119.6700713
0
ARC
8
back_labelLayer
10
54.3275673
20
305.6002438
40
3.5141859
50
120.1403054
51
142.4248943
0
ARC
8
back_labelLayer
10
55.1708586
20
305.0423806
40
4.5233005
50
143.3382446
51
161.2559846
0
ARC
8
back_labelLayer
10
58.6973419
20
303.7903617
40
8.2652429
50
160.8926386
51
171.233418
0
ARC
8
back_labelLayer
10
64.5843656
20
302.8406464
40
14.2282967
50
171.0667755
51
177.8456877
0
ARC
8
back_labelLayer
10
70.7069613
20
302.5292535
40
20.3584318
50
177.617673
51
180.0425216
0
ARC
8
back_labelLayer
10
67.8196504
20
302.4459227
40
17.4712484
50
179.77627
51
185.7075181
0
ARC
8
back_labelLayer
10
60.9313278
20
301.7361817
40
10.5465117
50
185.5924727
51
194.20507
0
ARC
8
back_labelLayer
10
56.5187793
20
300.5909708
40
5.9879184
50
193.9430311
51
208.0218339
0
ARC
8
back_labelLayer
10
54.7334452
20
299.6827237
40
3.9853513
50
208.5536636
51
217.5605416
0
ARC
8
back_labelLayer
10
54.5879881
20
299.622223
40
3.833381
50
218.1690425
51
253.8047143
0
ARC
8
back_labelLayer
10
55.2990052
20
301.814361
40
6.137254
50
253.138242
51
266.8483177
0
ARC
8
back_labelLayer
10
55.4983838
20
304.1656777
40
8.4962628
50
266.3775867
51
270.0510711
0
ARC
8
back_labelLayer
10
55.562323
20
300.9366841
40
5.2675676
50
269.386891
51
285.8630555
0
ARC
8
back_labelLayer
10
55.9536694
20
299.5223004
40
3.80009
50
286.0162913
51
326.8497307
0
ARC
8
back_labelLayer
10
54.0648191
20
300.773593
40
6.0657802
50
326.7105136
51
343.6661645
0
ARC
8
back_labelLayer
10
50.5290149
20
301.8540181
40
9.7628211
50
343.4171399
51
353.6369071
0
ARC
8
back_labelLayer
10
45.188522
20
302.4877023
40
15.1406918
50
353.4934846
51
0.2205388
0
ARC
8
back_labelLayer
10
44.7178034
20
302.6091717
40
15.611426
50
359.7680806
51
6.3095246
0
ARC
8
back_labelLayer
10
50.5982898
20
303.2839918
40
9.6924279
50
6.164874
51
16.0396321
0
ARC
8
back_labelLayer
10
54.3864459
20
304.40036
40
5.7433466
50
15.7779299
51
32.0151429
0
ARC
8
back_labelLayer
10
55.5677605
20
305.076862
40
4.3833738
50
32.7034164
51
35.5242869
0
ARC
8
back_labelLayer
10
55.9997484
20
305.3839041
40
3.8533862
50
35.5408448
51
79.8011191
0
ARC
8
back_labelLayer
10
55.4822794
20
303.1840487
40
6.1112816
50
78.6781171
51
90.3749652
0
LINE
8
back_labelLayer
10
80.3698242
20
293.7751798
11
78.4119141
21
293.7751798
0
LINE
8
back_labelLayer
10
78.4119141
20
293.7751798
11
77.8866211
21
296.2583829
0
LINE
8
back_labelLayer
10
77.8866211
20
296.2583829
11
77.7592773
21
296.2583829
0
LINE
8
back_labelLayer
10
74.8303711
20
304.1377775
11
77.7911133
21
304.2332853
0
LINE
8
back_labelLayer
10
77.7911133
20
304.2332853
11
77.7911133
21
305.3157072
0
LINE
8
back_labelLayer
10
69.1476562
20
307.9899259
11
68.3358398
21
310.0115079
0
LINE
8
back_labelLayer
10
80.3698242
20
305.6818204
11
80.3698242
21
293.7751798
0
LINE
8
back_labelLayer
10
77.7274414
20
300.7790861
11
77.7274414
21
302.354965
0
LINE
8
back_labelLayer
10
77.7274414
20
302.354965
11
75.0850586
21
302.2435392
0
ARC
8
back_labelLayer
10
69.1619907
20
303.0463618
40
10.9539945
50
314.744509
51
321.7071793
0
ARC
8
back_labelLayer
10
71.853223
20
300.3118625
40
7.1173373
50
304.8485566
51
314.8530764
0
ARC
8
back_labelLayer
10
73.1460257
20
298.4716927
40
4.8684637
50
294.3932772
51
304.737127
0
ARC
8
back_labelLayer
10
72.7043505
20
299.6161127
40
6.0935413
50
281.2979627
51
293.7313602
0
ARC
8
back_labelLayer
10
72.1204766
20
302.4458729
40
8.9828712
50
272.9335173
51
281.4139047
0
ARC
8
back_labelLayer
10
71.9269443
20
305.3483173
40
11.8915008
50
269.9539305
51
273.1490834
0
ARC
8
back_labelLayer
10
71.8600988
20
301.5657313
40
8.1091132
50
258.6719729
51
270.4047495
0
ARC
8
back_labelLayer
10
71.2968275
20
298.871273
40
5.3565548
50
238.3273049
51
258.9183848
0
ARC
8
back_labelLayer
10
70.9086668
20
298.1631184
40
4.5502508
50
227.7689255
51
237.8049992
0
ARC
8
back_labelLayer
10
70.7872553
20
297.9936308
40
4.3432185
50
192.0827687
51
227.4520719
0
ARC
8
back_labelLayer
10
73.0264407
20
298.5456103
40
6.6487199
50
179.5457286
51
192.6949273
0
ARC
8
back_labelLayer
10
70.9462545
20
298.7863446
40
4.5721924
50
115.4904638
51
182.3568139
0
ARC
8
back_labelLayer
10
73.2360596
20
294.5863705
40
9.3523688
50
101.3568227
51
117.0798639
0
ARC
8
back_labelLayer
10
75.0749791
20
285.9929439
40
18.1399899
50
92.4696193
51
101.7064997
0
ARC
8
back_labelLayer
10
75.6035042
20
278.3380967
40
25.8112622
50
91.7164558
51
92.9095644
0
ARC
8
back_labelLayer
10
70.2016805
20
305.3563293
40
7.5895415
50
359.6933297
51
8.0035913
0
ARC
8
back_labelLayer
10
73.0726337
20
305.7745678
40
4.688342
50
7.8272802
51
20.6041539
0
ARC
8
back_labelLayer
10
74.6972836
20
306.396076
40
2.9489169
50
20.4094113
51
41.4479485
0
ARC
8
back_labelLayer
10
74.9373248
20
306.5280182
40
2.6823255
50
42.7295681
51
71.038023
0
ARC
8
back_labelLayer
10
74.3721893
20
304.9914023
40
4.3193347
50
70.5716321
51
83.9928734
0
ARC
8
back_labelLayer
10
74.1022026
20
302.7983085
40
6.5287573
50
83.6506794
51
90.1753078
0
ARC
8
back_labelLayer
10
74.1495619
20
300.7242814
40
8.6030174
50
90.4484552
51
103.7665519
0
ARC
8
back_labelLayer
10
75.1612252
20
296.4580438
40
12.9874832
50
103.6226453
51
112.4320108
0
ARC
8
back_labelLayer
10
76.8953569
20
292.0794875
40
17.6965793
50
112.2122224
51
115.9640943
0
ARC
8
back_labelLayer
10
74.1182927
20
299.2880212
40
12.1831822
50
106.3568578
51
118.3349902
0
ARC
8
back_labelLayer
10
74.6373363
20
297.6846381
40
13.8679209
50
104.5162466
51
106.5489445
0
ARC
8
back_labelLayer
10
74.2566661
20
299.2706249
40
12.2371818
50
90.0714483
51
104.6521067
0
ARC
8
back_labelLayer
10
74.3046914
20
300.348007
40
11.1599694
50
81.5679802
51
90.3249105
0
ARC
8
back_labelLayer
10
74.9499458
20
304.5516557
40
6.907177
50
68.2273386
51
81.7494265
0
ARC
8
back_labelLayer
10
75.8486777
20
306.7877755
40
4.4972166
50
47.8683155
51
68.2934198
0
ARC
8
back_labelLayer
10
75.9945431
20
307.0790232
40
4.1842827
50
19.2330922
51
46.6741204
0
ARC
8
back_labelLayer
10
73.5646488
20
306.1750979
40
6.776527
50
6.3379067
51
19.6815302
0
ARC
8
back_labelLayer
10
69.9726815
20
305.7176273
40
10.3972045
50
359.8026789
51
6.6583581
0
ARC
8
back_labelLayer
10
72.496107
20
302.9126296
40
7.2752436
50
269.5792018
51
282.0413646
0
ARC
8
back_labelLayer
10
73.0267856
20
300.558767
40
4.8625437
50
281.7120893
51
306.4593945
0
ARC
8
back_labelLayer
10
73.2620817
20
300.1717998
40
4.4116769
50
306.9881515
51
313.8559385
0
ARC
8
back_labelLayer
10
73.234103
20
300.1637691
40
4.425346
50
314.1891887
51
347.4269861
0
ARC
8
back_labelLayer
10
71.0173206
20
300.7192831
40
6.7101598
50
346.9177738
51
0.2824516
0
ARC
8
back_labelLayer
10
69.3158952
20
300.7790697
40
8.4115461
50
359.8180789
51
0.0001113
0
ARC
8
back_labelLayer
10
75.7136077
20
282.8517389
40
19.4019843
50
91.856486
51
96.4478373
0
ARC
8
back_labelLayer
10
74.8386344
20
290.4231349
40
11.7802385
50
96.3545441
51
102.9953199
0
ARC
8
back_labelLayer
10
73.6509177
20
295.4693835
40
6.5961872
50
102.7995319
51
113.2433177
0
ARC
8
back_labelLayer
10
72.6718196
20
297.8110153
40
4.0582943
50
113.5886803
51
121.6804634
0
ARC
8
back_labelLayer
10
71.9915436
20
298.8470649
40
2.8195725
50
120.9734031
51
172.4179864
0
ARC
8
back_labelLayer
10
73.3211666
20
298.5814808
40
4.1735373
50
171.2122088
51
180.2058212
0
ARC
8
back_labelLayer
10
72.9237892
20
298.5352863
40
3.7762618
50
179.5265771
51
192.7787369
0
ARC
8
back_labelLayer
10
71.6463532
20
298.2256304
40
2.462051
50
192.3264623
51
222.057974
0
ARC
8
back_labelLayer
10
71.5513458
20
298.1688208
40
2.3535533
50
222.5805197
51
229.2546463
0
ARC
8
back_labelLayer
10
71.8724198
20
298.5821988
40
2.8764229
50
229.7836983
51
254.272419
0
ARC
8
back_labelLayer
10
72.3000636
20
300.0072809
40
4.3641442
50
253.9396669
51
266.4533904
0
ARC
8
back_labelLayer
10
72.4365571
20
301.5806532
40
5.9430742
50
266.078338
51
270.0589888
0
LINE
8
back_labelLayer
10
97.4498047
20
310.6323087
11
96.6379883
21
308.3878751
0
LINE
8
back_labelLayer
10
97.1951172
20
296.7040861
11
97.1951172
21
294.3641447
0
ARC
8
back_labelLayer
10
92.7015593
20
303.3321081
40
9.8756473
50
256.4243744
51
270.4889782
0
ARC
8
back_labelLayer
10
91.9124011
20
300.2520922
40
6.6965917
50
221.7976317
51
256.8020549
0
ARC
8
back_labelLayer
10
92.6766124
20
300.8167377
40
7.6431622
50
196.0166675
51
221.1349182
0
ARC
8
back_labelLayer
10
96.5174593
20
301.990697
40
11.6590304
50
183.5913776
51
196.3539517
0
ARC
8
back_labelLayer
10
100.8200893
20
302.3697495
40
15.977325
50
179.9388524
51
183.9815088
0
ARC
8
back_labelLayer
10
99.4221091
20
302.4806692
40
14.5796379
50
169.8978453
51
180.3688909
0
ARC
8
back_labelLayer
10
94.3466022
20
303.4195622
40
9.4181949
50
153.0875187
51
170.1051357
0
ARC
8
back_labelLayer
10
92.4208486
20
304.3397392
40
7.2846831
50
138.6550131
51
152.6853576
0
ARC
8
back_labelLayer
10
92.0614233
20
304.6016643
40
6.8419422
50
101.4912913
51
138.3133931
0
ARC
8
back_labelLayer
10
92.8865683
20
301.1674952
40
10.3724044
50
89.5891911
51
102.1787711
0
ARC
8
back_labelLayer
10
92.9500191
20
299.6153237
40
11.9243142
50
77.7702361
51
89.9475375
0
ARC
8
back_labelLayer
10
92.7243056
20
298.3701154
40
13.189148
50
74.6796992
51
77.9578369
0
ARC
8
back_labelLayer
10
93.9434641
20
302.7869188
40
8.6071856
50
70.094564
51
74.7386082
0
ARC
8
back_labelLayer
10
95.1031248
20
305.964973
40
5.2241802
50
63.503367
51
70.1861368
0
ARC
8
back_labelLayer
10
95.6509046
20
307.1126024
40
3.9527679
50
62.9287057
51
63.1878351
0
ARC
8
back_labelLayer
10
92.2972363
20
297.4637119
40
11.7549764
50
68.3294393
51
74.8831336
0
ARC
8
back_labelLayer
10
91.6770724
20
295.2647084
40
14.0396398
50
74.7801765
51
77.4497277
0
ARC
8
back_labelLayer
10
92.3281726
20
298.320848
40
10.91508
50
77.2998894
51
81.7345075
0
ARC
8
back_labelLayer
10
92.803074
20
301.6299445
40
7.5720867
50
81.691014
51
87.5079226
0
ARC
8
back_labelLayer
10
92.8946883
20
303.3420178
40
5.8576743
50
87.6750325
51
89.9747902
0
ARC
8
back_labelLayer
10
92.7662754
20
303.3399593
40
5.8611962
50
88.7194066
51
112.5667586
0
ARC
8
back_labelLayer
10
92.3497969
20
304.7169447
40
4.4321494
50
114.4265681
51
161.6632816
0
ARC
8
back_labelLayer
10
96.4870825
20
303.0975662
40
8.8719458
50
160.1418393
51
175.1368195
0
ARC
8
back_labelLayer
10
102.1815582
20
302.4581211
40
14.6009476
50
174.5309853
51
180.1549409
0
ARC
8
back_labelLayer
10
100.3774617
20
302.3525564
40
12.7969683
50
179.7041371
51
188.07437
0
ARC
8
back_labelLayer
10
95.768146
20
301.6781638
40
8.138648
50
187.9315276
51
200.3885474
0
ARC
8
back_labelLayer
10
93.2758531
20
300.7548956
40
5.4808415
50
200.4183386
51
216.63927
0
ARC
8
back_labelLayer
10
92.2310247
20
300.0079746
40
4.1967881
50
216.9695419
51
261.3102978
0
ARC
8
back_labelLayer
10
92.6921289
20
302.1577183
40
6.392863
50
260.1359436
51
270.2692246
0
ARC
8
back_labelLayer
10
92.6708452
20
306.8261375
40
11.0613306
50
270.2658438
51
286.2891468
0
ARC
8
back_labelLayer
10
91.9984027
20
309.3339065
40
13.6571669
50
286.0460641
51
292.3653947
0
ARC
8
back_labelLayer
10
93.7892171
20
301.0643635
40
7.5161884
50
282.0344329
51
296.9454464
0
ARC
8
back_labelLayer
10
93.0162228
20
304.5479659
40
11.0844384
50
272.5980631
51
282.1878313
0
ARC
8
back_labelLayer
10
92.794563
20
307.9474806
40
14.4906629
50
269.9655088
51
272.8643039
0
LINE
8
back_labelLayer
10
103.8169922
20
302.7051603
11
103.9443359
21
302.7051603
0
LINE
8
back_labelLayer
10
106.0295898
20
305.2520353
11
111.6645508
21
311.2212736
0
LINE
8
back_labelLayer
10
111.6645508
20
311.2212736
11
114.8003906
21
311.2212736
0
LINE
8
back_labelLayer
10
114.8003906
20
311.2212736
11
107.7328125
21
303.7875822
0
LINE
8
back_labelLayer
10
107.7328125
20
303.7875822
11
115.2938477
21
293.7751798
0
LINE
8
back_labelLayer
10
115.2938477
20
293.7751798
11
112.0943359
21
293.7751798
0
LINE
8
back_labelLayer
10
112.0943359
20
293.7751798
11
105.934082
21
302.0206876
0
LINE
8
back_labelLayer
10
105.934082
20
302.0206876
11
103.9443359
21
300.301547
0
LINE
8
back_labelLayer
10
103.9443359
20
300.301547
11
103.9443359
21
293.7751798
0
LINE
8
back_labelLayer
10
103.9443359
20
293.7751798
11
101.3337891
21
293.7751798
0
LINE
8
back_labelLayer
10
101.3337891
20
293.7751798
11
101.3337891
21
318.5435392
0
LINE
8
back_labelLayer
10
101.3337891
20
318.5435392
11
103.9443359
21
318.5435392
0
LINE
8
back_labelLayer
10
103.9443359
20
318.5435392
11
103.9443359
21
305.411215
0
ARC
8
back_labelLayer
10
116.7117786
20
293.6678371
40
15.6422761
50
142.3233671
51
144.7075636
0
ARC
8
back_labelLayer
10
125.0421838
20
287.2424073
40
26.1628168
50
140.433123
51
142.3365641
0
ARC
8
back_labelLayer
10
135.8979365
20
278.3062061
40
40.2234929
50
139.2799162
51
140.4703397
0
ARC
8
back_labelLayer
10
148.448449
20
267.5136148
40
56.7762976
50
138.3417455
51
139.2877243
0
ARC
8
back_labelLayer
10
86.3354371
20
305.4441759
40
17.6089297
50
358.2739363
51
359.8927519
0
ARC
8
back_labelLayer
10
72.6395075
20
305.8258359
40
31.3101563
50
357.504119
51
358.3307513
0
ARC
8
back_labelLayer
10
52.1325584
20
306.7315885
40
51.8370963
50
356.6325193
51
357.4910039
0
ARC
8
back_labelLayer
10
18.04905
20
308.7194816
40
85.9785239
50
356.0329266
51
356.6442463
0
ARC
8
back_labelLayer
10
-4.2692714
20
310.2246542
40
108.3475112
50
356.0203804
51
356.055394
0
LINE
8
right_outsideCutPath
10
166
20
406
11
166
21
206
0
LINE
8
right_outsideCutPath
10
166
20
206
11
232
21
206
0
LINE
8
right_outsideCutPath
10
232
20
206
11
232
21
406
0
LINE
8
right_outsideCutPath
10
232
20
406
11
166
21
406
0
LINE
8
right_labelLayer
10
189.4125976
20
309.6867577
11
189.2643555
21
308.6941796
0
LINE
8
right_labelLayer
10
186.4155273
20
306.3609765
11
186.4155273
21
302.5711327
0
LINE
8
right_labelLayer
10
186.4155273
20
302.5711327
11
185.3456055
21
302.5711327
0
LINE
8
right_labelLayer
10
185.3456055
20
302.5711327
11
185.3456055
21
309.6351952
0
LINE
8
right_labelLayer
10
185.3456055
20
309.6351952
11
186.2286133
21
309.6351952
0
LINE
8
right_labelLayer
10
186.2286133
20
309.6351952
11
186.3510742
21
308.3267968
0
LINE
8
right_labelLayer
10
186.3510742
20
308.3267968
11
186.4026367
21
308.3267968
0
ARC
8
right_labelLayer
10
188.5792416
20
304.8522728
40
4.911841
50
84.9922651
51
90.1280785
0
ARC
8
right_labelLayer
10
188.6972015
20
306.1738542
40
3.5850082
50
78.4892271
51
85.0266023
0
ARC
8
right_labelLayer
10
188.2393637
20
304.0915184
40
4.7154107
50
77.4453564
51
81.63603
0
ARC
8
right_labelLayer
10
188.4448075
20
305.5076317
40
3.2844762
50
81.5883987
51
87.1916634
0
ARC
8
right_labelLayer
10
188.4894279
20
306.2813274
40
2.5095323
50
87.34371
51
89.9659807
0
ARC
8
right_labelLayer
10
188.4790607
20
306.9370393
40
1.8538579
50
89.6335357
51
137.0880775
0
ARC
8
right_labelLayer
10
188.9340155
20
306.4254268
40
2.536242
50
135.6208907
51
138.8377349
0
ARC
8
right_labelLayer
10
188.8673648
20
306.4904859
40
2.443248
50
138.9575811
51
174.5422195
0
ARC
8
right_labelLayer
10
189.6630443
20
306.3659818
40
3.2475208
50
173.6907253
51
180.0883081
0
ARC
8
right_labelLayer
10
189.5505766
20
306.5532611
40
3.6131641
50
139.413931
51
150.603279
0
ARC
8
right_labelLayer
10
188.9027326
20
307.1083954
40
2.7600076
50
124.2321471
51
139.4161064
0
ARC
8
right_labelLayer
10
188.5563371
20
307.6312775
40
2.1328572
50
89.6796617
51
124.4405587
0
LINE
8
right_labelLayer
10
191.8038086
20
309.6351952
11
191.8038086
21
302.5711327
0
LINE
8
right_labelLayer
10
191.8038086
20
302.5711327
11
190.7338867
21
302.5711327
0
LINE
8
right_labelLayer
10
190.7338867
20
302.5711327
11
190.7338867
21
309.6351952
0
LINE
8
right_labelLayer
10
190.7338867
20
309.6351952
11
191.8038086
21
309.6351952
0
ARC
8
right_labelLayer
10
191.8292191
20
311.5567893
40
1.1855894
50
170.8451505
51
180.3545392
0
ARC
8
right_labelLayer
10
191.3853915
20
311.6309997
40
0.735613
50
155.9678972
51
171.0516138
0
ARC
8
right_labelLayer
10
191.1704174
20
311.7263713
40
0.5004336
50
133.7880452
51
155.9171383
0
ARC
8
right_labelLayer
10
191.2497852
20
311.6386255
40
0.618709
50
92.6446375
51
133.4710117
0
ARC
8
right_labelLayer
10
191.2748517
20
311.4418222
40
0.8166153
50
89.9690382
51
93.7644372
0
ARC
8
right_labelLayer
10
191.2850619
20
311.628129
40
0.6303841
50
46.370819
51
90.8879332
0
ARC
8
right_labelLayer
10
191.3477985
20
311.6928969
40
0.5402167
50
17.7252323
51
46.4472859
0
ARC
8
right_labelLayer
10
191.0552358
20
311.5921496
40
0.8495915
50
4.9428074
51
18.1901022
0
ARC
8
right_labelLayer
10
190.6830741
20
311.5519164
40
1.223862
50
359.8846768
51
5.3181621
0
ARC
8
right_labelLayer
10
190.7999617
20
311.5419356
40
1.1069974
50
349.8345137
51
0.3890867
0
ARC
8
right_labelLayer
10
191.2029767
20
311.466754
40
0.6970458
50
332.6322002
51
350.0706316
0
ARC
8
right_labelLayer
10
191.359832
20
311.3893005
40
0.5221518
50
313.6153739
51
332.2676774
0
ARC
8
right_labelLayer
10
191.2842381
20
311.4581314
40
0.6241723
50
269.1788544
51
314.280759
0
ARC
8
right_labelLayer
10
191.2682016
20
311.5136209
40
0.6796346
50
250.5000614
51
270.5978368
0
ARC
8
right_labelLayer
10
191.2476348
20
311.4367111
40
0.6003037
50
225.1301196
51
249.9001064
0
ARC
8
right_labelLayer
10
191.2154336
20
311.4011383
40
0.5523796
50
197.7934098
51
224.8941154
0
ARC
8
right_labelLayer
10
191.5168294
20
311.5044236
40
0.870943
50
184.9925981
51
198.2040724
0
ARC
8
right_labelLayer
10
191.9068335
20
311.5468176
40
1.2631839
50
179.8804611
51
185.3687206
0
LINE
8
right_labelLayer
10
197.4112305
20
309.6351952
11
199.8540039
21
309.6351952
0
LINE
8
right_labelLayer
10
199.8540039
20
309.6351952
11
199.8540039
21
308.9584374
0
LINE
8
right_labelLayer
10
199.8540039
20
308.9584374
11
198.5456055
21
308.8037499
0
LINE
8
right_labelLayer
10
196.1350586
20
303.6926171
11
197.3854492
21
303.6926171
0
LINE
8
right_labelLayer
10
197.0438476
20
302.7322655
11
195.7612305
21
302.7322655
0
ARC
8
right_labelLayer
10
197.1821518
20
307.724728
40
1.7387622
50
29.4584676
51
38.357696
0
ARC
8
right_labelLayer
10
196.4716522
20
307.3191326
40
2.5568744
50
23.1845307
51
29.5422431
0
ARC
8
right_labelLayer
10
195.7940046
20
307.0186099
40
3.2981239
50
21.250528
51
23.3490005
0
ARC
8
right_labelLayer
10
196.946033
20
307.4767739
40
2.0583901
50
6.8505034
51
20.9871469
0
ARC
8
right_labelLayer
10
196.3663507
20
307.398176
40
2.643324
50
359.8710388
51
7.0432586
0
ARC
8
right_labelLayer
10
196.5570595
20
307.3667224
40
2.452741
50
342.5649606
51
0.5957823
0
ARC
8
right_labelLayer
10
197.0094133
20
307.2418108
40
1.9838106
50
310.6097982
51
342.0923558
0
ARC
8
right_labelLayer
10
196.7557489
20
307.5368698
40
2.3729188
50
284.931568
51
310.6222733
0
ARC
8
right_labelLayer
10
196.4383119
20
308.649214
40
3.5295537
50
272.5335114
51
285.2579564
0
ARC
8
right_labelLayer
10
196.3566979
20
309.76405
40
4.6470195
50
269.9691924
51
272.9311971
0
ARC
8
right_labelLayer
10
196.3465707
20
308.5556027
40
3.43858
50
263.4836866
51
270.1271115
0
ARC
8
right_labelLayer
10
196.2905614
20
308.0235978
40
2.9036598
50
259.4963677
51
263.3903976
0
ARC
8
right_labelLayer
10
196.6372122
20
303.4781884
40
1.9038944
50
117.3935566
51
128.4095169
0
ARC
8
right_labelLayer
10
196.1470693
20
304.0862471
40
1.1229283
50
128.0881836
51
147.1400726
0
ARC
8
right_labelLayer
10
195.8830147
20
304.263447
40
0.8049956
50
147.5368922
51
180.2592487
0
ARC
8
right_labelLayer
10
195.6325082
20
304.2529509
40
0.5545232
50
179.2918258
51
198.3581591
0
ARC
8
right_labelLayer
10
195.5286884
20
304.2256654
40
0.4474452
50
199.229179
51
239.5690597
0
ARC
8
right_labelLayer
10
195.6147065
20
304.3445052
40
0.5936463
50
238.2200369
51
239.8461425
0
ARC
8
right_labelLayer
10
195.683453
20
304.4858988
40
0.7505288
50
240.7303317
51
254.5026579
0
ARC
8
right_labelLayer
10
195.8882945
20
305.1917804
40
1.485505
50
254.1637425
51
262.2122631
0
ARC
8
right_labelLayer
10
196.0505528
20
306.3251185
40
2.6303865
50
262.0556387
51
267.2082409
0
ARC
8
right_labelLayer
10
196.1289267
20
307.7626478
40
4.0700354
50
267.0918991
51
270.0863217
0
ARC
8
right_labelLayer
10
197.4088361
20
299.3130286
40
4.3796509
50
81.5744256
51
90.3059553
0
ARC
8
right_labelLayer
10
197.6490703
20
300.8797883
40
2.7946128
50
68.3671659
51
81.73993
0
ARC
8
right_labelLayer
10
197.9628432
20
301.6816767
40
1.9335343
50
52.1879189
51
68.2501305
0
ARC
8
right_labelLayer
10
198.1823892
20
301.9774983
40
1.5652498
50
8.6201376
51
51.8982483
0
ARC
8
right_labelLayer
10
197.4129129
20
301.8146829
40
2.3508803
50
359.7430602
51
9.7326669
0
ARC
8
right_labelLayer
10
197.4473693
20
301.7750239
40
2.3165833
50
340.5268658
51
0.7201558
0
ARC
8
right_labelLayer
10
197.7877296
20
301.690278
40
1.9677273
50
302.9903725
51
339.5494559
0
ARC
8
right_labelLayer
10
197.4302504
20
302.1445753
40
2.5439626
50
303.187166
51
304.1723328
0
ARC
8
right_labelLayer
10
197.0974528
20
302.7208268
40
3.2085975
50
286.2542184
51
302.5280129
0
ARC
8
right_labelLayer
10
196.4914766
20
304.719619
40
5.2971559
50
276.4939808
51
286.495354
0
ARC
8
right_labelLayer
10
196.1133853
20
307.8802323
40
8.4802713
50
269.7545103
51
276.6169718
0
ARC
8
right_labelLayer
10
196.0488151
20
305.3944634
40
5.9944909
50
262.5634618
51
270.2698797
0
ARC
8
right_labelLayer
10
195.7552126
20
303.2183106
40
3.7986538
50
251.2101983
51
262.7064188
0
ARC
8
right_labelLayer
10
195.3320389
20
301.976234
40
2.4864685
50
235.9668138
51
251.2229175
0
ARC
8
right_labelLayer
10
194.8835118
20
301.3363611
40
1.7052226
50
208.9036047
51
236.4231402
0
ARC
8
right_labelLayer
10
194.9246884
20
301.3191012
40
1.7332815
50
182.2079884
51
207.7461582
0
ARC
8
right_labelLayer
10
195.4489235
20
301.3714583
40
2.2593729
50
179.9785379
51
183.0225739
0
ARC
8
right_labelLayer
10
194.825261
20
301.4010064
40
1.635962
50
138.3916089
51
181.0052668
0
ARC
8
right_labelLayer
10
194.99802
20
301.2457484
40
1.8682315
50
113.81213
51
138.3496425
0
ARC
8
right_labelLayer
10
195.3257254
20
300.5380943
40
2.6479909
50
102.2870629
51
114.1172552
0
ARC
8
right_labelLayer
10
195.2227527
20
304.1358597
40
1.1104374
50
216.586123
51
245.4968935
0
ARC
8
right_labelLayer
10
195.3813293
20
304.2704319
40
1.3180471
50
215.4644968
51
217.1747162
0
ARC
8
right_labelLayer
10
195.1169405
20
304.0794788
40
0.9919207
50
182.1767578
51
215.3415426
0
ARC
8
right_labelLayer
10
195.3527379
20
304.1047673
40
1.2286168
50
179.9836888
51
182.9375784
0
ARC
8
right_labelLayer
10
195.3475951
20
304.115459
40
1.2235177
50
161.7225829
51
180.4843049
0
ARC
8
right_labelLayer
10
195.2130659
20
304.1521688
40
1.0842877
50
144.4962989
51
161.3350864
0
ARC
8
right_labelLayer
10
195.5716675
20
303.8849084
40
1.5314587
50
132.7259008
51
144.1479514
0
ARC
8
right_labelLayer
10
196.1463876
20
303.2711765
40
2.372261
50
125.221226
51
132.8655473
0
ARC
8
right_labelLayer
10
196.7241974
20
302.468817
40
3.3609897
50
121.2352085
51
125.379461
0
ARC
8
right_labelLayer
10
195.6998935
20
307.075184
40
1.8756589
50
215.1640807
51
247.4747955
0
ARC
8
right_labelLayer
10
196.0500408
20
307.3577647
40
2.3248355
50
212.4714321
51
215.8875458
0
ARC
8
right_labelLayer
10
195.9579466
20
307.2918779
40
2.2117747
50
183.0160764
51
212.3123105
0
ARC
8
right_labelLayer
10
196.443258
20
307.345976
40
2.6994107
50
179.9759458
51
183.6207521
0
ARC
8
right_labelLayer
10
196.8349238
20
307.373217
40
3.0911864
50
166.8195655
51
180.4839187
0
ARC
8
right_labelLayer
10
195.8094532
20
307.6321272
40
2.0337759
50
132.3287733
51
167.3340936
0
ARC
8
right_labelLayer
10
195.9466486
20
307.4349203
40
2.2721712
50
106.2189113
51
131.5377547
0
ARC
8
right_labelLayer
10
196.2937742
20
306.3109561
40
3.4484128
50
93.6329807
51
106.5408846
0
ARC
8
right_labelLayer
10
196.4070932
20
305.0387618
40
4.7253424
50
89.9379939
51
94.0267949
0
ARC
8
right_labelLayer
10
196.4254468
20
305.6630777
40
4.1010451
50
82.5851933
51
90.1849733
0
ARC
8
right_labelLayer
10
196.5507573
20
306.6326106
40
3.1234482
50
74.0088891
51
82.5694655
0
ARC
8
right_labelLayer
10
195.2952621
20
301.3705815
40
1.0745607
50
179.2207697
51
200.9355303
0
ARC
8
right_labelLayer
10
195.1674748
20
301.3409928
40
0.9448089
50
202.0286996
51
236.1457474
0
ARC
8
right_labelLayer
10
195.3599905
20
301.5854126
40
1.2552603
50
235.0632601
51
238.5043035
0
ARC
8
right_labelLayer
10
195.5839579
20
301.9854332
40
1.7134526
50
239.10662
51
254.4862781
0
ARC
8
right_labelLayer
10
195.8824746
20
303.0147084
40
2.7850989
50
254.2323892
51
263.4937204
0
ARC
8
right_labelLayer
10
196.0699848
20
304.6028895
40
4.3843029
50
263.4108357
51
270.1457733
0
ARC
8
right_labelLayer
10
196.0899364
20
305.5925697
40
5.3739762
50
269.9062092
51
270.0000532
0
ARC
8
right_labelLayer
10
196.1155811
20
307.4111539
40
7.192606
50
269.7957559
51
275.3990907
0
ARC
8
right_labelLayer
10
196.384779
20
304.6475543
40
4.4159448
50
275.2956874
51
283.3516091
0
ARC
8
right_labelLayer
10
196.8233548
20
302.8411496
40
2.5571042
50
283.1370557
51
295.8573147
0
ARC
8
right_labelLayer
10
197.1483138
20
302.1317185
40
1.7770556
50
296.4047973
51
301.8008369
0
ARC
8
right_labelLayer
10
197.2757369
20
301.9560783
40
1.560713
50
301.2230605
51
318.6238054
0
ARC
8
right_labelLayer
10
197.5631092
20
301.6906211
40
1.1696421
50
319.0765436
51
1.140711
0
ARC
8
right_labelLayer
10
197.2849931
20
301.7253736
40
1.4475718
50
359.5461045
51
10.9905029
0
ARC
8
right_labelLayer
10
197.84414
20
301.8391046
40
0.8770126
50
10.6608634
51
30.936205
0
ARC
8
right_labelLayer
10
198.0214239
20
301.937491
40
0.674404
50
31.5095641
51
58.0777245
0
ARC
8
right_labelLayer
10
197.8552643
20
301.6399734
40
1.0149174
50
58.9972385
51
73.8586304
0
ARC
8
right_labelLayer
10
197.5194188
20
300.5405209
40
2.1644623
50
73.4099651
51
81.5907456
0
ARC
8
right_labelLayer
10
197.2348547
20
298.6990194
40
4.0277993
50
81.4172222
51
86.5756799
0
ARC
8
right_labelLayer
10
197.0604727
20
295.924546
40
6.80774
50
86.5053952
51
90.1399213
0
ARC
8
right_labelLayer
10
195.7459283
20
300.2728723
40
2.4594409
50
89.6435143
51
100.0209019
0
ARC
8
right_labelLayer
10
195.5913489
20
301.1137775
40
1.604477
50
99.8103048
51
116.8229762
0
ARC
8
right_labelLayer
10
195.4407734
20
301.4313205
40
1.2531869
50
117.2304514
51
130.5022956
0
ARC
8
right_labelLayer
10
195.3634587
20
301.5306889
40
1.1274295
50
130.7944655
51
169.0413473
0
ARC
8
right_labelLayer
10
195.9327824
20
301.3966113
40
1.7120195
50
168.258069
51
180.3820629
0
ARC
8
right_labelLayer
10
196.8892889
20
307.3569175
40
2.0884711
50
179.5617877
51
191.6528704
0
ARC
8
right_labelLayer
10
196.1631478
20
307.2000338
40
1.3456267
50
191.3555382
51
213.3660094
0
ARC
8
right_labelLayer
10
195.988753
20
307.0993343
40
1.1446543
50
213.9573159
51
227.7972354
0
ARC
8
right_labelLayer
10
196.1404792
20
307.2833503
40
1.3829369
50
228.2620659
51
254.734122
0
ARC
8
right_labelLayer
10
196.3343058
20
307.9477959
40
2.0750062
50
254.4016747
51
267.4348539
0
ARC
8
right_labelLayer
10
196.384869
20
308.6257903
40
2.754658
50
267.015351
51
270.0323809
0
ARC
8
right_labelLayer
10
196.4179259
20
308.2017956
40
2.3308758
50
269.2256641
51
284.3773198
0
ARC
8
right_labelLayer
10
196.7356204
20
307.0949453
40
1.1802635
50
282.7796594
51
346.48285
0
ARC
8
right_labelLayer
10
195.7857903
20
307.3639904
40
2.1670304
50
345.4362358
51
0.7465755
0
ARC
8
right_labelLayer
10
195.6522829
20
307.4251254
40
2.300589
50
359.1806298
51
15.0431794
0
ARC
8
right_labelLayer
10
196.6947202
20
307.7292158
40
1.2151696
50
13.9535592
51
77.6673892
0
ARC
8
right_labelLayer
10
196.3956333
20
306.6574111
40
2.3269825
50
76.1095325
51
90.7028249
0
ARC
8
right_labelLayer
10
196.3508658
20
306.7392838
40
2.2449935
50
89.5859332
51
101.3334313
0
ARC
8
right_labelLayer
10
196.1904302
20
307.5044853
40
1.4632013
50
101.0620276
51
121.9739081
0
ARC
8
right_labelLayer
10
196.0776785
20
307.7073183
40
1.2314905
50
122.5210891
51
134.9966859
0
ARC
8
right_labelLayer
10
196.1241011
20
307.6795045
40
1.2840503
50
135.5839719
51
163.0016124
0
ARC
8
right_labelLayer
10
196.8021775
20
307.4572547
40
1.9975284
50
162.5912027
51
175.734331
0
ARC
8
right_labelLayer
10
197.6154716
20
307.377137
40
2.8145958
50
175.3393668
51
180.0864432
0
LINE
8
right_labelLayer
10
207.2081055
20
302.5711327
11
206.1381836
21
302.5711327
0
LINE
8
right_labelLayer
10
206.1381836
20
302.5711327
11
206.1381836
21
307.1408593
0
LINE
8
right_labelLayer
10
202.3741211
20
306.2642968
11
202.3741211
21
302.5711327
0
LINE
8
right_labelLayer
10
202.3741211
20
302.5711327
11
201.3041992
21
302.5711327
0
LINE
8
right_labelLayer
10
201.3041992
20
302.5711327
11
201.3041992
21
312.600039
0
LINE
8
right_labelLayer
10
201.3041992
20
312.600039
11
202.3741211
21
312.600039
0
LINE
8
right_labelLayer
10
202.3741211
20
312.600039
11
202.3741211
21
309.5642968
0
LINE
8
right_labelLayer
10
202.3225586
20
308.6555077
11
202.3870117
21
308.6555077
0
LINE
8
right_labelLayer
10
207.2081055
20
307.1795311
11
207.2081055
21
302.5711327
0
ARC
8
right_labelLayer
10
203.1138478
20
307.1582051
40
3.0243856
50
359.6713885
51
8.6877441
0
ARC
8
right_labelLayer
10
204.2347622
20
307.335976
40
1.8894909
50
8.4931336
51
22.6579868
0
ARC
8
right_labelLayer
10
204.8042688
20
307.5726449
40
1.272767
50
22.7024535
51
42.3419383
0
ARC
8
right_labelLayer
10
204.8682872
20
307.6014436
40
1.2062486
50
43.3790754
51
71.5386255
0
ARC
8
right_labelLayer
10
204.6289006
20
306.9325359
40
1.9165986
50
71.0828106
51
84.369117
0
ARC
8
right_labelLayer
10
204.5214414
20
306.018873
40
2.8364493
50
84.0198048
51
90.1510256
0
ARC
8
right_labelLayer
10
204.4909054
20
305.6176672
40
3.2377273
50
89.5919293
51
100.3595371
0
ARC
8
right_labelLayer
10
204.2616445
20
306.8224565
40
2.0113706
50
100.106781
51
118.084738
0
ARC
8
right_labelLayer
10
204.0284697
20
307.2800045
40
1.4979557
50
118.4551482
51
139.6706063
0
ARC
8
right_labelLayer
10
204.2625633
20
307.1199987
40
1.7802115
50
140.6208292
51
160.5049037
0
ARC
8
right_labelLayer
10
205.4964913
20
306.6632013
40
3.0959009
50
160.1566906
51
171.5313071
0
ARC
8
right_labelLayer
10
207.4930477
20
306.3468714
40
5.1173082
50
171.3202535
51
178.3406865
0
ARC
8
right_labelLayer
10
209.2795866
20
306.2670639
40
6.905466
50
178.1080151
51
180.0229594
0
ARC
8
right_labelLayer
10
192.7492328
20
309.552824
40
9.6248951
50
357.8674535
51
0.0682962
0
ARC
8
right_labelLayer
10
196.0187593
20
309.4280988
40
6.3529925
50
354.9829236
51
357.8942864
0
ARC
8
right_labelLayer
10
198.1783976
20
309.2400492
40
4.1851832
50
351.9712909
51
354.9618818
0
ARC
8
right_labelLayer
10
204.1992786
20
307.5218715
40
2.1376254
50
119.831596
51
147.9725822
0
ARC
8
right_labelLayer
10
204.458132
20
307.1242184
40
2.6114902
50
116.6657953
51
120.4182688
0
ARC
8
right_labelLayer
10
204.5064537
20
306.9972833
40
2.7466451
50
96.6652655
51
116.378246
0
ARC
8
right_labelLayer
10
204.6105872
20
306.2788401
40
3.4723769
50
89.8927038
51
96.995953
0
ARC
8
right_labelLayer
10
204.643887
20
305.41046
40
4.3408335
50
80.6863073
51
90.3537049
0
ARC
8
right_labelLayer
10
204.9141784
20
307.000269
40
2.7282554
50
65.6022694
51
80.8844299
0
ARC
8
right_labelLayer
10
205.2387414
20
307.7312569
40
1.9284884
50
46.7401004
51
65.4130636
0
ARC
8
right_labelLayer
10
205.2608021
20
307.8009102
40
1.862914
50
19.2204207
51
45.7660629
0
ARC
8
right_labelLayer
10
204.1866303
20
307.4027059
40
3.008384
50
6.4733852
51
19.6467974
0
ARC
8
right_labelLayer
10
202.5815563
20
307.196125
40
4.6265787
50
359.794501
51
6.774383
0
LINE
8
right_labelLayer
10
212.6543945
20
303.4541405
11
212.6543945
21
302.6355858
0
LINE
8
right_labelLayer
10
209.4833008
20
304.6014061
11
209.4833008
21
308.8037499
0
LINE
8
right_labelLayer
10
209.4833008
20
308.8037499
11
208.4713867
21
308.8037499
0
LINE
8
right_labelLayer
10
208.4713867
20
308.8037499
11
208.4713867
21
309.3193749
0
LINE
8
right_labelLayer
10
208.4713867
20
309.3193749
11
209.4833008
21
309.7641015
0
LINE
8
right_labelLayer
10
209.4833008
20
309.7641015
11
209.9344726
21
311.2723046
0
LINE
8
right_labelLayer
10
209.9344726
20
311.2723046
11
210.5532226
21
311.2723046
0
LINE
8
right_labelLayer
10
210.5532226
20
311.2723046
11
210.5532226
21
309.6351952
0
LINE
8
right_labelLayer
10
210.5532226
20
309.6351952
11
212.602832
21
309.6351952
0
LINE
8
right_labelLayer
10
212.602832
20
309.6351952
11
212.602832
21
308.8037499
0
LINE
8
right_labelLayer
10
212.602832
20
308.8037499
11
210.5532226
21
308.8037499
0
LINE
8
right_labelLayer
10
210.5532226
20
308.8037499
11
210.5532226
21
304.6465233
0
ARC
8
right_labelLayer
10
211.6949338
20
306.8390121
40
3.5137855
50
269.8803761
51
278.302816
0
ARC
8
right_labelLayer
10
211.7282742
20
306.5665212
40
3.2393424
50
278.4152745
51
279.0077046
0
ARC
8
right_labelLayer
10
211.3339969
20
309.0851011
40
5.7885943
50
278.9590813
51
280.5103253
0
ARC
8
right_labelLayer
10
211.7098944
20
307.0681231
40
3.7368889
50
280.4847473
51
282.6269053
0
ARC
8
right_labelLayer
10
212.0393905
20
305.6043051
40
2.2364467
50
282.5875991
51
285.5794264
0
ARC
8
right_labelLayer
10
212.2051799
20
304.9946075
40
1.6046283
50
285.7240669
51
286.2571801
0
ARC
8
right_labelLayer
10
212.2045643
20
303.5870042
40
1.0523992
50
287.9888923
51
295.3047629
0
ARC
8
right_labelLayer
10
211.9507404
20
304.3549448
40
1.861194
50
283.3069561
51
288.1197571
0
ARC
8
right_labelLayer
10
211.6825708
20
305.4735875
40
3.0115282
50
280.007099
51
283.3734286
0
ARC
8
right_labelLayer
10
211.5033417
20
306.4461655
40
4.0004614
50
279.186246
51
280.1144784
0
ARC
8
right_labelLayer
10
211.3930789
20
307.0733572
40
4.63722
50
275.5260099
51
279.2940002
0
ARC
8
right_labelLayer
10
211.5171686
20
305.7772177
40
3.3351549
50
270.893237
51
275.5483794
0
ARC
8
right_labelLayer
10
211.5327594
20
305.1846447
40
2.7424183
50
270.0031494
51
270.7605472
0
ARC
8
right_labelLayer
10
211.4897355
20
305.2363709
40
2.794478
50
253.7847875
51
270.885254
0
ARC
8
right_labelLayer
10
211.158664
20
304.1072925
40
1.6178665
50
190.3817637
51
253.8772416
0
ARC
8
right_labelLayer
10
212.8461364
20
304.5635544
40
3.3630487
50
179.3551107
51
192.8477504
0
ARC
8
right_labelLayer
10
212.7076627
20
304.6330498
40
2.1544822
50
179.6416866
51
189.7505529
0
ARC
8
right_labelLayer
10
211.9470753
20
304.4973905
40
1.3819155
50
189.5479184
51
205.7873815
0
ARC
8
right_labelLayer
10
211.6345154
20
304.3532583
40
1.0377981
50
206.1294056
51
221.408409
0
ARC
8
right_labelLayer
10
211.5994714
20
304.3266676
40
0.9939322
50
221.5949245
51
262.3505174
0
ARC
8
right_labelLayer
10
211.6828238
20
304.7553038
40
1.4300775
50
261.3266514
51
270.1912627
0
LINE
8
bottom_outsideCutPath
10
235
20
158
11
235
21
82
0
LINE
8
bottom_outsideCutPath
10
235
20
82
11
398
21
82
0
LINE
8
bottom_outsideCutPath
10
398
20
82
11
398
21
158
0
LINE
8
bottom_outsideCutPath
10
398
20
158
11
235
21
158
0
LINE
8
bottom_labelLayer
10
292.7276984
20
115.3466764
11
292.6386359
21
115.3466764
0
LINE
8
bottom_labelLayer
10
292.6386359
20
115.3466764
11
292.3788703
21
114.300192
0
LINE
8
bottom_labelLayer
10
292.3788703
20
114.300192
11
291.4956672
21
114.300192
0
LINE
8
bottom_labelLayer
10
291.4956672
20
114.300192
11
291.4956672
21
125.8486295
0
LINE
8
bottom_labelLayer
10
291.4956672
20
125.8486295
11
292.7276984
21
125.8486295
0
LINE
8
bottom_labelLayer
10
292.7276984
20
125.8486295
11
292.7276984
21
123.0431608
0
LINE
8
bottom_labelLayer
10
292.6683234
20
121.3509733
11
292.7276984
21
121.3509733
0
ARC
8
bottom_labelLayer
10
295.3177834
20
118.8028284
40
3.7655138
50
74.2393371
51
90.5623897
0
ARC
8
bottom_labelLayer
10
295.5667718
20
119.7162532
40
2.8188119
50
38.5631225
51
74.0670422
0
ARC
8
bottom_labelLayer
10
294.9260135
20
119.2180254
40
3.6304317
50
16.4709246
51
38.4075362
0
ARC
8
bottom_labelLayer
10
293.0800747
20
118.6391932
40
5.5648259
50
5.1338519
51
16.7973366
0
ARC
8
bottom_labelLayer
10
290.7497566
20
118.3916497
40
7.9080379
50
359.8779293
51
5.4093686
0
ARC
8
bottom_labelLayer
10
291.4342116
20
118.3321846
40
7.2236906
50
350.6562786
51
0.3380236
0
ARC
8
bottom_labelLayer
10
293.9525127
20
117.9038488
40
4.6692793
50
335.830591
51
350.8254849
0
ARC
8
bottom_labelLayer
10
295.060261
20
117.4257289
40
3.4629215
50
321.3161562
51
335.5436139
0
ARC
8
bottom_labelLayer
10
295.4837651
20
117.0806382
40
2.9166456
50
274.0640033
51
321.4081016
0
ARC
8
bottom_labelLayer
10
295.28647
20
118.3303573
40
4.1786067
50
269.922576
51
275.5481918
0
ARC
8
bottom_labelLayer
10
295.2600478
20
117.8887158
40
3.737019
50
255.7755315
51
270.318533
0
ARC
8
bottom_labelLayer
10
295.1533985
20
117.4148943
40
3.2515449
50
245.9801477
51
255.5456005
0
ARC
8
bottom_labelLayer
10
294.9468431
20
116.9345503
40
2.7287261
50
215.5850159
51
245.8361713
0
ARC
8
bottom_labelLayer
10
267.0406035
20
123.0214451
40
25.6871042
50
358.1123366
51
0.0484374
0
ARC
8
bottom_labelLayer
10
274.1898606
20
122.7814313
40
18.5338211
50
355.7238686
51
358.1258991
0
ARC
8
bottom_labelLayer
10
277.3248558
20
122.5661679
40
15.3915139
50
355.4716565
51
355.6527998
0
ARC
8
bottom_labelLayer
10
295.0253825
20
119.7487368
40
2.801163
50
95.1835052
51
145.1109072
0
ARC
8
bottom_labelLayer
10
295.2715961
20
118.3603187
40
4.2078523
50
89.8743574
51
96.8145455
0
ARC
8
bottom_labelLayer
10
295.0769052
20
118.0745129
40
3.4621033
50
89.5731327
51
100.7324493
0
ARC
8
bottom_labelLayer
10
294.8206135
20
119.369382
40
2.142184
50
100.4469563
51
119.670061
0
ARC
8
bottom_labelLayer
10
294.5829543
20
119.8137168
40
1.6385186
50
120.1403211
51
142.4248756
0
ARC
8
bottom_labelLayer
10
294.9761438
20
119.5536108
40
2.1090236
50
143.338247
51
161.2559862
0
ARC
8
bottom_labelLayer
10
296.6204026
20
118.9698453
40
3.8537421
50
160.8926525
51
171.2334072
0
ARC
8
bottom_labelLayer
10
299.3652487
20
118.5270372
40
6.6340375
50
171.0667712
51
177.8456987
0
ARC
8
bottom_labelLayer
10
302.2198298
20
118.3818482
40
9.492134
50
177.6176506
51
180.0425352
0
ARC
8
bottom_labelLayer
10
300.8737303
20
118.3429942
40
8.146094
50
179.7762823
51
185.7075373
0
ARC
8
bottom_labelLayer
10
297.6620267
20
118.0120739
40
4.9174123
50
185.5924926
51
194.2050542
0
ARC
8
bottom_labelLayer
10
295.6046235
20
117.4781079
40
2.7919145
50
193.9430451
51
208.0218393
0
ARC
8
bottom_labelLayer
10
294.7722038
20
117.0546353
40
1.8582097
50
208.5537059
51
217.5605392
0
ARC
8
bottom_labelLayer
10
294.7043753
20
117.0264202
40
1.7873425
50
218.1690389
51
253.804726
0
ARC
8
bottom_labelLayer
10
295.0358947
20
118.0485317
40
2.8615516
50
253.1382669
51
266.8482949
0
ARC
8
bottom_labelLayer
10
295.1288532
20
119.1448081
40
3.9614143
50
266.3775809
51
270.0510962
0
ARC
8
bottom_labelLayer
10
295.158667
20
117.6392933
40
2.4560388
50
269.3868886
51
285.8630865
0
ARC
8
bottom_labelLayer
10
295.3411346
20
116.9798318
40
1.771822
50
286.0163047
51
326.849722
0
ARC
8
bottom_labelLayer
10
294.4604518
20
117.5632523
40
2.8282084
50
326.7104911
51
343.6661912
0
ARC
8
bottom_labelLayer
10
292.8118596
20
118.0670104
40
4.551979
50
343.4171235
51
353.6369159
0
ARC
8
bottom_labelLayer
10
290.3218326
20
118.3624701
40
7.0594337
50
353.493476
51
0.2205589
0
ARC
8
bottom_labelLayer
10
290.1023373
20
118.4191085
40
7.2789364
50
359.7680798
51
6.3095334
0
ARC
8
bottom_labelLayer
10
292.8441507
20
118.7337492
40
4.5191666
50
6.1648691
51
16.0396322
0
ARC
8
bottom_labelLayer
10
294.6104082
20
119.2542649
40
2.6778763
50
15.7779242
51
32.0151559
0
ARC
8
bottom_labelLayer
10
295.1612381
20
119.5697105
40
2.0437393
50
32.7034301
51
35.524359
0
ARC
8
bottom_labelLayer
10
295.3626203
20
119.7128492
40
1.7966702
50
35.5408393
51
79.801129
0
ARC
8
bottom_labelLayer
10
295.1213457
20
118.6871436
40
2.8494376
50
78.6781327
51
90.3749573
0
ARC
8
bottom_labelLayer
10
301.4674119
20
118.3318987
40
6.3639468
50
349.1761933
51
0.386264
0
ARC
8
bottom_labelLayer
10
303.6099997
20
117.9047707
40
4.1793022
50
330.2507111
51
349.4116357
0
ARC
8
bottom_labelLayer
10
304.2693781
20
117.5620534
40
3.4368962
50
318.143985
51
329.756608
0
ARC
8
bottom_labelLayer
10
304.3883936
20
117.4666738
40
3.2846182
50
278.8959079
51
317.997923
0
ARC
8
bottom_labelLayer
10
304.0817522
20
118.9358179
40
4.7841088
50
269.7502867
51
279.8033232
0
ARC
8
bottom_labelLayer
10
304.0320204
20
118.1080445
40
3.9563954
50
253.5436923
51
270.4182558
0
ARC
8
bottom_labelLayer
10
303.9003216
20
117.5985997
40
3.4305585
50
238.8115681
51
253.2428327
0
ARC
8
bottom_labelLayer
10
303.8578163
20
117.5131204
40
3.3354313
50
207.7947061
51
238.6757962
0
ARC
8
bottom_labelLayer
10
304.4677242
20
117.8866584
40
4.0494148
50
205.6560055
51
208.4461141
0
ARC
8
bottom_labelLayer
10
304.9375027
20
118.0823998
40
4.5577071
50
188.9102463
51
205.3171422
0
ARC
8
bottom_labelLayer
10
306.5206933
20
118.3505409
40
6.1633551
50
179.774469
51
189.0932837
0
ARC
8
bottom_labelLayer
10
306.7542358
20
118.4181294
40
6.3969965
50
169.2442973
51
180.3880777
0
ARC
8
bottom_labelLayer
10
304.5818692
20
118.8475271
40
4.1826918
50
150.7111587
51
169.4695376
0
ARC
8
bottom_labelLayer
10
303.8883718
20
119.2036646
40
3.4037416
50
138.1759383
51
150.2287627
0
ARC
8
bottom_labelLayer
10
303.7730217
20
119.2921815
40
3.2587744
50
99.1759396
51
137.9832706
0
ARC
8
bottom_labelLayer
10
304.0905265
20
117.7979659
40
4.7850908
50
89.7326457
51
100.0759793
0
ARC
8
bottom_labelLayer
10
304.1539843
20
118.4432748
40
4.1399341
50
73.5222681
51
90.5692336
0
ARC
8
bottom_labelLayer
10
304.3967663
20
119.3253651
40
3.2252546
50
41.1445709
51
73.2133824
0
ARC
8
bottom_labelLayer
10
303.9333134
20
118.9270343
40
3.836348
50
13.501435
51
41.0703398
0
ARC
8
bottom_labelLayer
10
302.1427664
20
118.4584725
40
5.6869308
50
1.1277212
51
13.8799972
0
ARC
8
bottom_labelLayer
10
300.6006475
20
118.3758236
40
7.2305667
50
359.9919004
51
1.5420146
0
ARC
8
bottom_labelLayer
10
307.8728494
20
118.342785
40
6.2389832
50
179.7059754
51
187.9160893
0
ARC
8
bottom_labelLayer
10
305.5845864
20
118.0140776
40
3.9272689
50
187.763934
51
200.0976875
0
ARC
8
bottom_labelLayer
10
304.3239887
20
117.5521928
40
2.5847178
50
200.084588
51
216.9131565
0
ARC
8
bottom_labelLayer
10
303.8636632
20
117.2234991
40
2.0192976
50
217.3009559
51
261.7099067
0
ARC
8
bottom_labelLayer
10
304.0773607
20
118.2432348
40
3.0598682
50
260.5032986
51
270.2476999
0
ARC
8
bottom_labelLayer
10
304.11815
20
118.0449552
40
2.8616928
50
269.448177
51
284.7255795
0
ARC
8
bottom_labelLayer
10
304.344694
20
117.204779
40
1.9915353
50
284.5662293
51
322.6333796
0
ARC
8
bottom_labelLayer
10
303.8150246
20
117.5874411
40
2.6447992
50
323.0089295
51
342.6390572
0
ARC
8
bottom_labelLayer
10
302.3000542
20
118.0825771
40
4.2385471
50
342.3615744
51
353.7537611
0
ARC
8
bottom_labelLayer
10
300.0649542
20
118.3519891
40
6.4897375
50
353.5363095
51
0.201403
0
ARC
8
bottom_labelLayer
10
300.4074386
20
118.4061783
40
6.147293
50
359.7075509
51
7.8972852
0
ARC
8
bottom_labelLayer
10
302.6587374
20
118.728925
40
3.8730148
50
7.7439833
51
20.0690172
0
ARC
8
bottom_labelLayer
10
303.9132538
20
119.1892845
40
2.5367002
50
20.0257232
51
37.4350319
0
ARC
8
bottom_labelLayer
10
304.3294999
20
119.4846458
40
2.0267285
50
37.9577614
51
80.4006289
0
ARC
8
bottom_labelLayer
10
304.0929643
20
118.4292485
40
3.1073192
50
79.3453488
51
90.3175019
0
ARC
8
bottom_labelLayer
10
304.0491648
20
118.6045486
40
2.932092
50
89.4805842
51
103.8804895
0
ARC
8
bottom_labelLayer
10
303.8027946
20
119.5427298
40
1.9622544
50
103.4685342
51
142.311876
0
ARC
8
bottom_labelLayer
10
304.2817619
20
119.2058868
40
2.547354
50
142.9025826
51
162.3749487
0
ARC
8
bottom_labelLayer
10
305.7909695
20
118.7029466
40
4.1380608
50
162.0653003
51
173.1675038
0
ARC
8
bottom_labelLayer
10
308.1442861
20
118.402796
40
6.5103978
50
173.0086367
51
180.2463712
0
LINE
8
bottom_labelLayer
10
313.7316047
20
115.3169889
11
313.7316047
21
114.3744108
0
LINE
8
bottom_labelLayer
10
310.0800422
20
116.6380827
11
310.0800422
21
121.4771452
0
LINE
8
bottom_labelLayer
10
310.0800422
20
121.4771452
11
308.9148078
21
121.4771452
0
LINE
8
bottom_labelLayer
10
308.9148078
20
121.4771452
11
308.9148078
21
122.0708952
0
LINE
8
bottom_labelLayer
10
308.9148078
20
122.0708952
11
310.0800422
21
122.5830045
0
LINE
8
bottom_labelLayer
10
310.0800422
20
122.5830045
11
310.5995734
21
124.3197233
0
LINE
8
bottom_labelLayer
10
310.5995734
20
124.3197233
11
311.3120734
21
124.3197233
0
LINE
8
bottom_labelLayer
10
311.3120734
20
124.3197233
11
311.3120734
21
122.434567
0
LINE
8
bottom_labelLayer
10
311.3120734
20
122.434567
11
313.6722297
21
122.434567
0
LINE
8
bottom_labelLayer
10
313.6722297
20
122.434567
11
313.6722297
21
121.4771452
0
LINE
8
bottom_labelLayer
10
313.6722297
20
121.4771452
11
311.3120734
21
121.4771452
0
LINE
8
bottom_labelLayer
10
311.3120734
20
121.4771452
11
311.3120734
21
116.6900358
0
ARC
8
bottom_labelLayer
10
312.6267739
20
119.2146997
40
4.0461571
50
269.8803361
51
278.3028182
0
ARC
8
bottom_labelLayer
10
312.6652444
20
118.9002956
40
3.7295002
50
278.4154933
51
279.0080269
0
ARC
8
bottom_labelLayer
10
312.2113087
20
121.8002118
40
6.6647264
50
278.9589298
51
280.5103898
0
ARC
8
bottom_labelLayer
10
312.6440093
20
119.4785078
40
4.3030461
50
280.4846949
51
282.6268719
0
ARC
8
bottom_labelLayer
10
313.0233738
20
117.7931052
40
2.5754772
50
282.5877444
51
285.5793685
0
ARC
8
bottom_labelLayer
10
313.2150024
20
117.0885896
40
1.8453854
50
285.7229911
51
286.2567885
0
ARC
8
bottom_labelLayer
10
313.2136302
20
115.4699543
40
1.2118222
50
287.9887871
51
295.3048477
0
ARC
8
bottom_labelLayer
10
312.9213461
20
116.3542499
40
2.1431627
50
283.3068788
51
288.1197477
0
ARC
8
bottom_labelLayer
10
312.6125784
20
117.6422173
40
3.4676203
50
280.0069543
51
283.3734781
0
ARC
8
bottom_labelLayer
10
312.4057046
20
118.7650076
40
4.6092855
50
279.1864374
51
280.1141274
0
ARC
8
bottom_labelLayer
10
312.2791881
20
119.4845234
40
5.3397802
50
275.5259809
51
279.2940056
0
ARC
8
bottom_labelLayer
10
312.4220721
20
117.9920627
40
3.8404966
50
270.8932291
51
275.5483531
0
ARC
8
bottom_labelLayer
10
312.4400096
20
117.3120489
40
3.1602944
50
270.0034237
51
270.7602564
0
ARC
8
bottom_labelLayer
10
312.3904828
20
117.3692614
40
3.2178909
50
253.7848121
51
270.8852409
0
ARC
8
bottom_labelLayer
10
312.009248
20
116.0691031
40
1.8629976
50
190.381759
51
253.8772481
0
ARC
8
bottom_labelLayer
10
313.9523919
20
116.5944955
40
3.8725952
50
179.3551066
51
192.8477689
0
ARC
8
bottom_labelLayer
10
313.7929149
20
116.6745185
40
2.48089
50
179.6416287
51
189.7506129
0
ARC
8
bottom_labelLayer
10
312.9171222
20
116.518309
40
1.5913031
50
189.5479498
51
205.7873463
0
ARC
8
bottom_labelLayer
10
312.5571989
20
116.3523372
40
1.1950409
50
206.1294206
51
221.4084149
0
ARC
8
bottom_labelLayer
10
312.5168446
20
116.3217164
40
1.1445275
50
221.5949023
51
262.3505171
0
ARC
8
bottom_labelLayer
10
312.6128261
20
116.8152863
40
1.6467442
50
261.3265959
51
270.1912707
0
LINE
8
bottom_labelLayer
10
319.0976203
20
115.3169889
11
319.0976203
21
114.3744108
0
LINE
8
bottom_labelLayer
10
315.4460578
20
116.6380827
11
315.4460578
21
121.4771452
0
LINE
8
bottom_labelLayer
10
315.4460578
20
121.4771452
11
314.2808234
21
121.4771452
0
LINE
8
bottom_labelLayer
10
314.2808234
20
121.4771452
11
314.2808234
21
122.0708952
0
LINE
8
bottom_labelLayer
10
314.2808234
20
122.0708952
11
315.4460578
21
122.5830045
0
LINE
8
bottom_labelLayer
10
315.4460578
20
122.5830045
11
315.9655891
21
124.3197233
0
LINE
8
bottom_labelLayer
10
315.9655891
20
124.3197233
11
316.6780891
21
124.3197233
0
LINE
8
bottom_labelLayer
10
316.6780891
20
124.3197233
11
316.6780891
21
122.434567
0
LINE
8
bottom_labelLayer
10
316.6780891
20
122.434567
11
319.0382453
21
122.434567
0
LINE
8
bottom_labelLayer
10
319.0382453
20
122.434567
11
319.0382453
21
121.4771452
0
LINE
8
bottom_labelLayer
10
319.0382453
20
121.4771452
11
316.6780891
21
121.4771452
0
LINE
8
bottom_labelLayer
10
316.6780891
20
121.4771452
11
316.6780891
21
116.6900358
0
ARC
8
bottom_labelLayer
10
317.9927896
20
119.2146997
40
4.0461571
50
269.8803361
51
278.3028182
0
ARC
8
bottom_labelLayer
10
318.03126
20
118.9002956
40
3.7295002
50
278.4154933
51
279.0080269
0
ARC
8
bottom_labelLayer
10
317.5773243
20
121.8002118
40
6.6647264
50
278.9589298
51
280.5103898
0
ARC
8
bottom_labelLayer
10
318.0100249
20
119.4785078
40
4.3030461
50
280.4846949
51
282.6268719
0
ARC
8
bottom_labelLayer
10
318.3893894
20
117.7931052
40
2.5754772
50
282.5877444
51
285.5793685
0
ARC
8
bottom_labelLayer
10
318.581018
20
117.0885896
40
1.8453854
50
285.7229911
51
286.2567885
0
ARC
8
bottom_labelLayer
10
318.5796459
20
115.4699543
40
1.2118222
50
287.9887871
51
295.3048477
0
ARC
8
bottom_labelLayer
10
318.2873617
20
116.3542499
40
2.1431627
50
283.3068788
51
288.1197477
0
ARC
8
bottom_labelLayer
10
317.978594
20
117.6422173
40
3.4676203
50
280.0069543
51
283.3734781
0
ARC
8
bottom_labelLayer
10
317.7717203
20
118.7650076
40
4.6092855
50
279.1864374
51
280.1141274
0
ARC
8
bottom_labelLayer
10
317.6452037
20
119.4845234
40
5.3397802
50
275.5259809
51
279.2940056
0
ARC
8
bottom_labelLayer
10
317.7880878
20
117.9920627
40
3.8404966
50
270.8932291
51
275.5483531
0
ARC
8
bottom_labelLayer
10
317.8060252
20
117.3120489
40
3.1602944
50
270.0034237
51
270.7602564
0
ARC
8
bottom_labelLayer
10
317.7564984
20
117.3692614
40
3.2178909
50
253.7848121
51
270.8852409
0
ARC
8
bottom_labelLayer
10
317.3752637
20
116.0691031
40
1.8629976
50
190.381759
51
253.8772481
0
ARC
8
bottom_labelLayer
10
319.3184075
20
116.5944955
40
3.8725952
50
179.3551066
51
192.8477689
0
ARC
8
bottom_labelLayer
10
319.1589305
20
116.6745185
40
2.48089
50
179.6416287
51
189.7506129
0
ARC
8
bottom_labelLayer
10
318.2831378
20
116.518309
40
1.5913031
50
189.5479498
51
205.7873463
0
ARC
8
bottom_labelLayer
10
317.9232146
20
116.3523372
40
1.1950409
50
206.1294206
51
221.4084149
0
ARC
8
bottom_labelLayer
10
317.8828603
20
116.3217164
40
1.1445275
50
221.5949023
51
262.3505171
0
ARC
8
bottom_labelLayer
10
317.9788417
20
116.8152863
40
1.6467442
50
261.3265959
51
270.1912707
0
ARC
8
bottom_labelLayer
10
321.3803025
20
118.3318987
40
6.3639468
50
349.1761933
51
0.386264
0
ARC
8
bottom_labelLayer
10
323.5228904
20
117.9047707
40
4.1793022
50
330.2507111
51
349.4116357
0
ARC
8
bottom_labelLayer
10
324.1822687
20
117.5620534
40
3.4368962
50
318.143985
51
329.756608
0
ARC
8
bottom_labelLayer
10
324.3012842
20
117.4666738
40
3.2846182
50
278.8959079
51
317.997923
0
ARC
8
bottom_labelLayer
10
323.9946428
20
118.9358179
40
4.7841088
50
269.7502867
51
279.8033232
0
ARC
8
bottom_labelLayer
10
323.944911
20
118.1080445
40
3.9563954
50
253.5436923
51
270.4182558
0
ARC
8
bottom_labelLayer
10
323.8132122
20
117.5985997
40
3.4305585
50
238.8115681
51
253.2428327
0
ARC
8
bottom_labelLayer
10
323.7707069
20
117.5131204
40
3.3354313
50
207.7947061
51
238.6757962
0
ARC
8
bottom_labelLayer
10
324.3806148
20
117.8866584
40
4.0494148
50
205.6560055
51
208.4461141
0
ARC
8
bottom_labelLayer
10
324.8503933
20
118.0823998
40
4.5577071
50
188.9102463
51
205.3171422
0
ARC
8
bottom_labelLayer
10
326.4335839
20
118.3505409
40
6.1633551
50
179.774469
51
189.0932837
0
ARC
8
bottom_labelLayer
10
326.6671264
20
118.4181294
40
6.3969965
50
169.2442973
51
180.3880777
0
ARC
8
bottom_labelLayer
10
324.4947598
20
118.8475271
40
4.1826918
50
150.7111587
51
169.4695376
0
ARC
8
bottom_labelLayer
10
323.8012625
20
119.2036646
40
3.4037416
50
138.1759383
51
150.2287627
0
ARC
8
bottom_labelLayer
10
323.6859123
20
119.2921815
40
3.2587744
50
99.1759396
51
137.9832706
0
ARC
8
bottom_labelLayer
10
324.0034171
20
117.7979659
40
4.7850908
50
89.7326457
51
100.0759793
0
ARC
8
bottom_labelLayer
10
324.0668749
20
118.4432748
40
4.1399341
50
73.5222681
51
90.5692336
0
ARC
8
bottom_labelLayer
10
324.3096569
20
119.3253651
40
3.2252546
50
41.1445709
51
73.2133824
0
ARC
8
bottom_labelLayer
10
323.8462041
20
118.9270343
40
3.836348
50
13.501435
51
41.0703398
0
ARC
8
bottom_labelLayer
10
322.055657
20
118.4584725
40
5.6869308
50
1.1277212
51
13.8799972
0
ARC
8
bottom_labelLayer
10
320.5135381
20
118.3758236
40
7.2305667
50
359.9919004
51
1.5420146
0
ARC
8
bottom_labelLayer
10
327.7857401
20
118.342785
40
6.2389832
50
179.7059754
51
187.9160893
0
ARC
8
bottom_labelLayer
10
325.497477
20
118.0140776
40
3.9272689
50
187.763934
51
200.0976875
0
ARC
8
bottom_labelLayer
10
324.2368793
20
117.5521928
40
2.5847178
50
200.084588
51
216.9131565
0
ARC
8
bottom_labelLayer
10
323.7765538
20
117.2234991
40
2.0192976
50
217.3009559
51
261.7099067
0
ARC
8
bottom_labelLayer
10
323.9902514
20
118.2432348
40
3.0598682
50
260.5032986
51
270.2476999
0
ARC
8
bottom_labelLayer
10
324.0310406
20
118.0449552
40
2.8616928
50
269.448177
51
284.7255795
0
ARC
8
bottom_labelLayer
10
324.2575846
20
117.204779
40
1.9915353
50
284.5662293
51
322.6333796
0
ARC
8
bottom_labelLayer
10
323.7279152
20
117.5874411
40
2.6447992
50
323.0089295
51
342.6390572
0
ARC
8
bottom_labelLayer
10
322.2129448
20
118.0825771
40
4.2385471
50
342.3615744
51
353.7537611
0
ARC
8
bottom_labelLayer
10
319.9778448
20
118.3519891
40
6.4897375
50
353.5363095
51
0.201403
0
ARC
8
bottom_labelLayer
10
320.3203292
20
118.4061783
40
6.147293
50
359.7075509
51
7.8972852
0
ARC
8
bottom_labelLayer
10
322.571628
20
118.728925
40
3.8730148
50
7.7439833
51
20.0690172
0
ARC
8
bottom_labelLayer
10
323.8261444
20
119.1892845
40
2.5367002
50
20.0257232
51
37.4350319
0
ARC
8
bottom_labelLayer
10
324.2423905
20
119.4846458
40
2.0267285
50
37.9577614
51
80.4006289
0
ARC
8
bottom_labelLayer
10
324.0058549
20
118.4292485
40
3.1073192
50
79.3453488
51
90.3175019
0
ARC
8
bottom_labelLayer
10
323.9620554
20
118.6045486
40
2.932092
50
89.4805842
51
103.8804895
0
ARC
8
bottom_labelLayer
10
323.7156852
20
119.5427298
40
1.9622544
50
103.4685342
51
142.311876
0
ARC
8
bottom_labelLayer
10
324.1946526
20
119.2058868
40
2.547354
50
142.9025826
51
162.3749487
0
ARC
8
bottom_labelLayer
10
325.7038601
20
118.7029466
40
4.1380608
50
162.0653003
51
173.1675038
0
ARC
8
bottom_labelLayer
10
328.0571767
20
118.402796
40
6.5103978
50
173.0086367
51
180.2463712
0
LINE
8
bottom_labelLayer
10
341.5042609
20
114.300192
11
340.2722297
21
114.300192
0
LINE
8
bottom_labelLayer
10
340.2722297
20
114.300192
11
340.2722297
21
119.5919889
0
LINE
8
bottom_labelLayer
10
336.3163703
20
118.8423795
11
336.3163703
21
114.300192
0
LINE
8
bottom_labelLayer
10
336.3163703
20
114.300192
11
335.0843391
21
114.300192
0
LINE
8
bottom_labelLayer
10
335.0843391
20
114.300192
11
335.0843391
21
119.5919889
0
LINE
8
bottom_labelLayer
10
331.1359016
20
118.5677702
11
331.1359016
21
114.300192
0
LINE
8
bottom_labelLayer
10
331.1359016
20
114.300192
11
329.9038703
21
114.300192
0
LINE
8
bottom_labelLayer
10
329.9038703
20
114.300192
11
329.9038703
21
122.434567
0
LINE
8
bottom_labelLayer
10
329.9038703
20
122.434567
11
330.9058234
21
122.434567
0
LINE
8
bottom_labelLayer
10
330.9058234
20
122.434567
11
331.1062141
21
121.3212858
0
LINE
8
bottom_labelLayer
10
331.1062141
20
121.3212858
11
331.1655891
21
121.3212858
0
LINE
8
bottom_labelLayer
10
336.0640266
20
121.2025358
11
336.1234016
21
121.2025358
0
LINE
8
bottom_labelLayer
10
341.5042609
20
119.6068327
11
341.5042609
21
114.300192
0
ARC
8
bottom_labelLayer
10
336.6376747
20
119.6113461
40
3.6346065
50
359.694852
51
8.1471302
0
ARC
8
bottom_labelLayer
10
337.9764142
20
119.809462
40
2.2813112
50
7.9864878
51
20.7949232
0
ARC
8
bottom_labelLayer
10
338.7164408
20
120.0929382
40
1.488853
50
20.7070902
51
40.0217583
0
ARC
8
bottom_labelLayer
10
338.8787816
20
120.1991549
40
1.2964316
50
41.0408196
51
73.1792652
0
ARC
8
bottom_labelLayer
10
338.6438728
20
119.4886694
40
2.0445871
50
72.6395548
51
86.2567916
0
ARC
8
bottom_labelLayer
10
338.568619
20
118.6766468
40
2.8598755
50
85.8144189
51
90.0685284
0
ARC
8
bottom_labelLayer
10
338.5409715
20
118.3664044
40
3.1702083
50
89.5621374
51
101.2961803
0
ARC
8
bottom_labelLayer
10
338.3022021
20
119.5094748
40
2.0025377
50
101.003243
51
121.7840294
0
ARC
8
bottom_labelLayer
10
338.1206769
20
119.8335492
40
1.6315312
50
122.3597084
51
140.2883806
0
ARC
8
bottom_labelLayer
10
338.4472553
20
119.5940911
40
2.0359003
50
140.9765086
51
161.1699645
0
ARC
8
bottom_labelLayer
10
339.6775739
20
119.1562487
40
3.3417361
50
160.8731879
51
172.5272334
0
ARC
8
bottom_labelLayer
10
341.7333809
20
118.872328
40
5.4170264
50
172.3776591
51
180.1829685
0
ARC
8
bottom_labelLayer
10
343.2051217
20
118.8422783
40
6.8887515
50
179.8939466
51
179.9991583
0
ARC
8
bottom_labelLayer
10
331.4497841
20
119.6113461
40
3.6346065
50
359.694852
51
8.1471302
0
ARC
8
bottom_labelLayer
10
332.7885236
20
119.809462
40
2.2813112
50
7.9864878
51
20.7949232
0
ARC
8
bottom_labelLayer
10
333.5285502
20
120.0929382
40
1.488853
50
20.7070902
51
40.0217583
0
ARC
8
bottom_labelLayer
10
333.6942666
20
120.2014876
40
1.2923539
50
41.0610785
51
72.8993595
0
ARC
8
bottom_labelLayer
10
333.4549081
20
119.4888903
40
2.0439213
50
72.3601108
51
85.9561789
0
ARC
8
bottom_labelLayer
10
333.3738839
20
118.6515265
40
2.8849963
50
85.5237827
51
90.0793985
0
ARC
8
bottom_labelLayer
10
333.346244
20
118.4766032
40
3.0600083
50
89.5573229
51
101.4832288
0
ARC
8
bottom_labelLayer
10
333.1113778
20
119.577001
40
1.9349116
50
101.1546418
51
123.0655732
0
ARC
8
bottom_labelLayer
10
332.9517263
20
119.855106
40
1.6148407
50
123.7020488
51
142.3022434
0
ARC
8
bottom_labelLayer
10
333.325696
20
119.6013987
40
2.0660733
50
143.0769732
51
161.391397
0
ARC
8
bottom_labelLayer
10
334.833153
20
119.0690003
40
3.6646861
50
161.0234667
51
171.4469052
0
ARC
8
bottom_labelLayer
10
337.3286935
20
118.678082
40
6.1906313
50
171.3041962
51
178.350159
0
ARC
8
bottom_labelLayer
10
339.7140379
20
118.571555
40
8.5781373
50
178.0976417
51
180.0252803
0
ARC
8
bottom_labelLayer
10
333.252816
20
120.0938937
40
2.4213649
50
117.1209513
51
149.5423783
0
ARC
8
bottom_labelLayer
10
333.4999376
20
119.6546679
40
2.9250179
50
93.8343281
51
117.5072236
0
ARC
8
bottom_labelLayer
10
333.5681949
20
119.0500206
40
3.5329845
50
89.9662415
51
94.2830807
0
ARC
8
bottom_labelLayer
10
333.609088
20
118.5495144
40
4.0336769
50
77.5572203
51
90.5512996
0
ARC
8
bottom_labelLayer
10
333.9833686
20
120.1593645
40
2.3810681
50
52.7027117
51
78.0053717
0
ARC
8
bottom_labelLayer
10
334.1167177
20
120.4074653
40
2.1033661
50
22.2097976
51
51.4970503
0
ARC
8
bottom_labelLayer
10
338.355279
20
119.923442
40
2.5724226
50
119.4041645
51
150.1828844
0
ARC
8
bottom_labelLayer
10
338.6403185
20
119.4900465
40
3.0901367
50
118.2581711
51
120.0630939
0
ARC
8
bottom_labelLayer
10
338.6397627
20
119.4578754
40
3.1182503
50
95.8635287
51
117.9693099
0
ARC
8
bottom_labelLayer
10
338.7452972
20
118.6947642
40
3.8882442
50
89.9197181
51
96.2617388
0
ARC
8
bottom_labelLayer
10
338.7791762
20
118.3004873
40
4.2826116
50
79.9361093
51
90.3803709
0
ARC
8
bottom_labelLayer
10
339.0645326
20
119.8459507
40
2.7110843
50
62.9723112
51
80.1665087
0
ARC
8
bottom_labelLayer
10
339.3628373
20
120.4579547
40
2.0304011
50
44.2289748
51
62.6229177
0
ARC
8
bottom_labelLayer
10
339.2741134
20
120.4187571
40
2.1215877
50
19.5612075
51
43.3161285
0
ARC
8
bottom_labelLayer
10
337.9855768
20
119.9347818
40
3.4978837
50
7.504194
51
19.9645339
0
ARC
8
bottom_labelLayer
10
335.8534127
20
119.6353631
40
5.6509201
50
359.7107231
51
7.6907174
0
ENDSEC
0
EOF