0
SECTION
2
HEADER
9
$INSUNITS
70
4
0
ENDSEC
0
SECTION
2
TABLES
0
TABLE
2
LTYPE
0
LTYPE
72
65
70
64
2
CONTINUOUS
3
______
73
0
40
0
0
ENDTAB
0
TABLE
2
LAYER
0
ENDTAB
0
ENDSEC
0
SECTION
2
ENTITIES
0
LINE
8
front_outsideCutPath
10
0
20
213
11
0
21
177.31025
0
LINE
8
front_outsideCutPath
10
0
20
177.31025
11
5
21
177.31025
0
LINE
8
front_outsideCutPath
10
5
20
177.31025
11
5
21
149.58615
0
LINE
8
front_outsideCutPath
10
5
20
149.58615
11
0
21
149.58615
0
LINE
8
front_outsideCutPath
10
0
20
149.58615
11
0
21
121.86205
0
LINE
8
front_outsideCutPath
10
0
20
121.86205
11
5
21
121.86205
0
LINE
8
front_outsideCutPath
10
5
20
121.86205
11
5
21
94.13795
0
LINE
8
front_outsideCutPath
10
5
20
94.13795
11
0
21
94.13795
0
LINE
8
front_outsideCutPath
10
0
20
94.13795
11
0
21
66.41385
0
LINE
8
front_outsideCutPath
10
0
20
66.41385
11
5
21
66.41385
0
LINE
8
front_outsideCutPath
10
5
20
66.41385
11
5
21
38.68975
0
LINE
8
front_outsideCutPath
10
5
20
38.68975
11
0
21
38.68975
0
LINE
8
front_outsideCutPath
10
0
20
38.68975
11
0
21
10.96565
0
LINE
8
front_outsideCutPath
10
0
20
10.96565
11
0
21
3
0
LINE
8
front_outsideCutPath
10
0
20
3
11
39.91385
21
3
0
LINE
8
front_outsideCutPath
10
39.91385
20
3
11
39.91385
21
8
0
LINE
8
front_outsideCutPath
10
39.91385
20
8
11
67.63795
21
8
0
LINE
8
front_outsideCutPath
10
67.63795
20
8
11
67.63795
21
3
0
LINE
8
front_outsideCutPath
10
67.63795
20
3
11
95.36205
21
3
0
LINE
8
front_outsideCutPath
10
95.36205
20
3
11
95.36205
21
8
0
LINE
8
front_outsideCutPath
10
95.36205
20
8
11
123.08615
21
8
0
LINE
8
front_outsideCutPath
10
123.08615
20
8
11
123.08615
21
3
0
LINE
8
front_outsideCutPath
10
123.08615
20
3
11
150.81025
21
3
0
LINE
8
front_outsideCutPath
10
150.81025
20
3
11
163
21
3
0
LINE
8
front_outsideCutPath
10
163
20
3
11
163
21
38.68975
0
LINE
8
front_outsideCutPath
10
163
20
38.68975
11
158
21
38.68975
0
LINE
8
front_outsideCutPath
10
158
20
38.68975
11
158
21
66.41385
0
LINE
8
front_outsideCutPath
10
158
20
66.41385
11
163
21
66.41385
0
LINE
8
front_outsideCutPath
10
163
20
66.41385
11
163
21
94.13795
0
LINE
8
front_outsideCutPath
10
163
20
94.13795
11
158
21
94.13795
0
LINE
8
front_outsideCutPath
10
158
20
94.13795
11
158
21
121.86205
0
LINE
8
front_outsideCutPath
10
158
20
121.86205
11
163
21
121.86205
0
LINE
8
front_outsideCutPath
10
163
20
121.86205
11
163
21
149.58615
0
LINE
8
front_outsideCutPath
10
163
20
149.58615
11
158
21
149.58615
0
LINE
8
front_outsideCutPath
10
158
20
149.58615
11
158
21
177.31025
0
LINE
8
front_outsideCutPath
10
158
20
177.31025
11
163
21
177.31025
0
LINE
8
front_outsideCutPath
10
163
20
177.31025
11
163
21
205.03435
0
LINE
8
front_outsideCutPath
10
163
20
205.03435
11
163
21
213
0
LINE
8
front_outsideCutPath
10
163
20
213
11
123.08615
21
213
0
LINE
8
front_outsideCutPath
10
123.08615
20
213
11
123.08615
21
208
0
LINE
8
front_outsideCutPath
10
123.08615
20
208
11
95.36205
21
208
0
LINE
8
front_outsideCutPath
10
95.36205
20
208
11
95.36205
21
213
0
LINE
8
front_outsideCutPath
10
95.36205
20
213
11
67.63795
21
213
0
LINE
8
front_outsideCutPath
10
67.63795
20
213
11
67.63795
21
208
0
LINE
8
front_outsideCutPath
10
67.63795
20
208
11
39.91385
21
208
0
LINE
8
front_outsideCutPath
10
39.91385
20
208
11
39.91385
21
213
0
LINE
8
front_outsideCutPath
10
39.91385
20
213
11
12.18975
21
213
0
LINE
8
front_outsideCutPath
10
12.18975
20
213
11
0
21
213
0
LINE
8
front_labelLayer
10
54.495166
20
113.1338901
11
54.495166
21
111.0804721
0
LINE
8
front_labelLayer
10
54.495166
20
111.0804721
11
50.0540527
21
111.0804721
0
LINE
8
front_labelLayer
10
50.0540527
20
111.0804721
11
50.0540527
21
95.6877963
0
LINE
8
front_labelLayer
10
50.0540527
20
95.6877963
11
47.4116699
21
95.6877963
0
LINE
8
front_labelLayer
10
47.4116699
20
95.6877963
11
47.4116699
21
111.0804721
0
LINE
8
front_labelLayer
10
47.4116699
20
111.0804721
11
44.291748
21
111.0804721
0
LINE
8
front_labelLayer
10
44.291748
20
111.0804721
11
44.291748
21
112.2743198
0
LINE
8
front_labelLayer
10
44.291748
20
112.2743198
11
47.4116699
21
113.2293979
0
LINE
8
front_labelLayer
10
47.4116699
20
113.2293979
11
47.4116699
21
114.200394
0
LINE
8
front_labelLayer
10
56.2779785
20
120.0741245
11
55.5935059
21
117.9570346
0
LINE
8
front_labelLayer
10
50.0540527
20
114.2640659
11
50.0540527
21
113.1338901
0
LINE
8
front_labelLayer
10
50.0540527
20
113.1338901
11
54.495166
21
113.1338901
0
ARC
8
front_labelLayer
10
58.120329
20
114.3235055
40
10.7093667
50
167.577599
51
180.6586686
0
ARC
8
front_labelLayer
10
53.0844319
20
115.4975849
40
5.5391658
50
141.7433915
51
168.2322098
0
ARC
8
front_labelLayer
10
52.2644848
20
115.9255359
40
4.6335058
50
98.2551448
51
139.6203385
0
ARC
8
front_labelLayer
10
52.9844106
20
112.5997507
40
8.0316361
50
89.6696888
51
99.9314263
0
ARC
8
front_labelLayer
10
52.9864188
20
112.1222823
40
8.5090863
50
81.5640937
51
89.7017449
0
ARC
8
front_labelLayer
10
52.3882087
20
107.9488459
40
12.7251443
50
75.9740022
51
81.6564759
0
ARC
8
front_labelLayer
10
51.3616196
20
103.6908114
40
17.1050733
50
73.2963764
51
76.0946032
0
ARC
8
front_labelLayer
10
51.6201677
20
105.7563788
40
12.8313451
50
71.9613342
51
76.5918247
0
ARC
8
front_labelLayer
10
52.6156489
20
109.9793049
40
8.4926924
50
76.5183341
51
83.0217044
0
ARC
8
front_labelLayer
10
52.9623959
20
112.7678042
40
5.6827247
50
83.0760917
51
89.7926736
0
ARC
8
front_labelLayer
10
52.9509848
20
114.8870968
40
3.5635383
50
89.4859008
51
103.4197355
0
ARC
8
front_labelLayer
10
52.6297065
20
116.1214144
40
2.2885074
50
102.7677264
51
144.3380371
0
ARC
8
front_labelLayer
10
53.2769502
20
115.7049712
40
3.0574097
50
145.0688489
51
162.1801646
0
ARC
8
front_labelLayer
10
55.4961294
20
114.9583291
40
5.3987044
50
161.8437689
51
171.7847004
0
ARC
8
front_labelLayer
10
59.1156674
20
114.4146865
40
9.058806
50
171.652787
51
178.4383408
0
ARC
8
front_labelLayer
10
62.5298971
20
114.2691047
40
12.4758455
50
178.1973207
51
180.0231411
0
LINE
8
front_labelLayer
10
67.722998
20
113.2612338
11
67.3568848
21
110.8098667
0
LINE
8
front_labelLayer
10
60.3211426
20
105.047562
11
60.3211426
21
95.6877963
0
LINE
8
front_labelLayer
10
60.3211426
20
95.6877963
11
57.6787598
21
95.6877963
0
LINE
8
front_labelLayer
10
57.6787598
20
95.6877963
11
57.6787598
21
113.1338901
0
LINE
8
front_labelLayer
10
57.6787598
20
113.1338901
11
59.8595215
21
113.1338901
0
LINE
8
front_labelLayer
10
59.8595215
20
113.1338901
11
60.1619629
21
109.9025424
0
LINE
8
front_labelLayer
10
60.1619629
20
109.9025424
11
60.2893066
21
109.9025424
0
ARC
8
front_labelLayer
10
65.664864
20
101.3215029
40
12.1307769
50
84.9922862
51
90.128092
0
ARC
8
front_labelLayer
10
65.9561829
20
104.5854274
40
8.8538835
50
78.4892047
51
85.0265799
0
ARC
8
front_labelLayer
10
64.8254584
20
99.4426358
40
11.6456883
50
77.4453773
51
81.636032
0
ARC
8
front_labelLayer
10
65.3328487
20
102.9400143
40
8.1117052
50
81.5884388
51
87.1916728
0
ARC
8
front_labelLayer
10
65.4430488
20
104.8509535
40
6.1976837
50
87.3436685
51
89.9659818
0
ARC
8
front_labelLayer
10
65.417445
20
106.4702626
40
4.5784672
50
89.6335381
51
137.0880797
0
ARC
8
front_labelLayer
10
66.5410855
20
105.2066932
40
6.2638071
50
135.6208762
51
138.8376907
0
ARC
8
front_labelLayer
10
66.3764356
20
105.3674122
40
6.0340795
50
138.9575734
51
174.542228
0
ARC
8
front_labelLayer
10
68.3416289
20
105.0599174
40
8.0204959
50
173.6907634
51
180.0882635
0
ARC
8
front_labelLayer
10
68.0637613
20
105.5224499
40
8.9234161
50
139.4139333
51
150.6032867
0
ARC
8
front_labelLayer
10
66.4637878
20
106.8934578
40
6.8163855
50
124.2321487
51
139.4161009
0
ARC
8
front_labelLayer
10
65.6082942
20
108.184821
40
5.2675109
50
89.6796657
51
124.4405642
0
ARC
8
front_labelLayer
10
72.3958955
20
104.3347473
40
13.6489947
50
349.1761915
51
0.3862592
0
ARC
8
front_labelLayer
10
76.9911959
20
103.4186647
40
8.9634931
50
330.2507039
51
349.411651
0
ARC
8
front_labelLayer
10
78.4053937
20
102.6836193
40
7.3712198
50
318.1439761
51
329.7566278
0
ARC
8
front_labelLayer
10
78.6606346
20
102.4790696
40
7.044645
50
278.895916
51
317.9979117
0
ARC
8
front_labelLayer
10
78.0029721
20
105.6299933
40
10.2606536
50
269.7502808
51
279.803318
0
ARC
8
front_labelLayer
10
77.8963101
20
103.8546427
40
8.4854318
50
253.5436972
51
270.4182508
0
ARC
8
front_labelLayer
10
77.6138497
20
102.7620087
40
7.3576412
50
238.811555
51
253.2428273
0
ARC
8
front_labelLayer
10
77.5226867
20
102.5786813
40
7.1536213
50
207.7947026
51
238.675798
0
ARC
8
front_labelLayer
10
78.830916
20
103.3798959
40
8.685084
50
205.6560489
51
208.4461078
0
ARC
8
front_labelLayer
10
79.8383311
20
103.7996372
40
9.7750829
50
188.9102485
51
205.3171434
0
ARC
8
front_labelLayer
10
83.2338512
20
104.3747279
40
13.2187679
50
179.7744648
51
189.0932842
0
ARC
8
front_labelLayer
10
83.7347468
20
104.5196882
40
13.719876
50
169.2442979
51
180.3880769
0
ARC
8
front_labelLayer
10
79.0755873
20
105.4406338
40
8.9707701
50
150.7111518
51
169.469537
0
ARC
8
front_labelLayer
10
77.5882367
20
106.2044422
40
7.3001498
50
138.175948
51
150.2287397
0
ARC
8
front_labelLayer
10
77.3408244
20
106.3943025
40
6.9892111
50
99.175934
51
137.9832789
0
ARC
8
front_labelLayer
10
78.0217867
20
103.189623
40
10.2627382
50
89.7326284
51
100.0759845
0
ARC
8
front_labelLayer
10
78.1578885
20
104.5736095
40
8.8790782
50
73.5222766
51
90.5692246
0
ARC
8
front_labelLayer
10
78.6785939
20
106.4654713
40
6.9173212
50
41.1445669
51
73.213384
0
ARC
8
front_labelLayer
10
77.6846098
20
105.6111555
40
8.2279563
50
13.5014359
51
41.0703431
0
ARC
8
front_labelLayer
10
73.8443585
20
104.6062135
40
12.1969684
50
1.1277223
51
13.88
0
ARC
8
front_labelLayer
10
70.5364439
20
104.4289463
40
15.5081365
50
359.9919271
51
1.5419941
0
ARC
8
front_labelLayer
10
86.1338617
20
104.3580902
40
13.3809617
50
179.7059572
51
187.9160808
0
ARC
8
front_labelLayer
10
81.2261428
20
103.6531
40
8.4229458
50
187.7639211
51
200.0976931
0
ARC
8
front_labelLayer
10
78.5225032
20
102.6624819
40
5.5435381
50
200.0845903
51
216.9131629
0
ARC
8
front_labelLayer
10
77.5352273
20
101.9575206
40
4.3308617
50
217.3009567
51
261.7099097
0
ARC
8
front_labelLayer
10
77.9935537
20
104.1446009
40
6.5626275
50
260.5033109
51
270.2476892
0
ARC
8
front_labelLayer
10
78.0810355
20
103.7193268
40
6.1375769
50
269.4481693
51
284.7255746
0
ARC
8
front_labelLayer
10
78.5669121
20
101.9173705
40
4.2713187
50
284.5662295
51
322.6333836
0
ARC
8
front_labelLayer
10
77.4309113
20
102.7380807
40
5.6723976
50
323.0089235
51
342.6390536
0
ARC
8
front_labelLayer
10
74.1816983
20
103.8000174
40
9.0905676
50
342.3615706
51
353.7537581
0
ARC
8
front_labelLayer
10
69.3880323
20
104.3778295
40
13.918743
50
353.5363144
51
0.2014253
0
ARC
8
front_labelLayer
10
70.122497
20
104.4940534
40
13.1843641
50
359.7075643
51
7.8972748
0
ARC
8
front_labelLayer
10
74.9509762
20
105.186261
40
8.3066006
50
7.7439954
51
20.0690248
0
ARC
8
front_labelLayer
10
77.6415935
20
106.1736168
40
5.4405465
50
20.0257115
51
37.4350458
0
ARC
8
front_labelLayer
10
78.5343232
20
106.8070834
40
4.3468016
50
37.95777
51
80.4006139
0
ARC
8
front_labelLayer
10
78.0270148
20
104.5435261
40
6.6643923
50
79.3453366
51
90.3174731
0
ARC
8
front_labelLayer
10
77.9330809
20
104.9195087
40
6.2885656
50
89.4805967
51
103.8805019
0
ARC
8
front_labelLayer
10
77.4046791
20
106.9316623
40
4.2085169
50
103.4685236
51
142.3118881
0
ARC
8
front_labelLayer
10
78.4319328
20
106.2092239
40
5.4633969
50
142.9025678
51
162.3749596
0
ARC
8
front_labelLayer
10
81.6688249
20
105.1305384
40
8.875085
50
162.0653167
51
173.1674783
0
ARC
8
front_labelLayer
10
86.716
20
104.4868036
40
13.9630529
50
173.0086243
51
180.246378
0
LINE
8
front_labelLayer
10
105.2575684
20
95.6877963
11
102.6151855
21
95.6877963
0
LINE
8
front_labelLayer
10
102.6151855
20
95.6877963
11
102.6151855
21
106.9736362
0
LINE
8
front_labelLayer
10
93.3190918
20
104.8406284
11
93.3190918
21
95.6877963
0
LINE
8
front_labelLayer
10
93.3190918
20
95.6877963
11
90.676709
21
95.6877963
0
LINE
8
front_labelLayer
10
90.676709
20
95.6877963
11
90.676709
21
113.1338901
0
LINE
8
front_labelLayer
10
90.676709
20
113.1338901
11
92.8256348
21
113.1338901
0
LINE
8
front_labelLayer
10
92.8256348
20
113.1338901
11
93.2554199
21
110.7461948
0
LINE
8
front_labelLayer
10
93.2554199
20
110.7461948
11
93.3827637
21
110.7461948
0
LINE
8
front_labelLayer
10
105.2575684
20
107.069144
11
105.2575684
21
95.6877963
0
ARC
8
front_labelLayer
10
95.145953
20
107.0164725
40
7.4693554
50
359.6714107
51
8.6877185
0
ARC
8
front_labelLayer
10
97.9143098
20
107.4555143
40
4.6664719
50
8.4931454
51
22.6579925
0
ARC
8
front_labelLayer
10
99.3208267
20
108.0400201
40
3.143341
50
22.702427
51
42.3419605
0
ARC
8
front_labelLayer
10
99.4789257
20
108.1111386
40
2.9790697
50
43.3790833
51
71.5386206
0
ARC
8
front_labelLayer
10
98.8877122
20
106.4591328
40
4.7334256
50
71.082819
51
84.3691033
0
ARC
8
front_labelLayer
10
98.6223286
20
104.2027503
40
7.0050898
50
84.0197873
51
90.1510786
0
ARC
8
front_labelLayer
10
98.5470916
20
103.2107529
40
7.9972645
50
89.5933022
51
100.3717984
0
ARC
8
front_labelLayer
10
97.9819321
20
106.1759537
40
4.9788149
50
100.1176459
51
118.1602545
0
ARC
8
front_labelLayer
10
97.412393
20
107.2927742
40
3.725487
50
118.5439448
51
139.1926715
0
ARC
8
front_labelLayer
10
97.9089972
20
106.9595484
40
4.3197465
50
140.1519067
51
160.3146456
0
ARC
8
front_labelLayer
10
100.9078533
20
105.8363056
40
7.5218584
50
159.9534472
51
171.3801025
0
ARC
8
front_labelLayer
10
105.8065087
20
105.0488648
40
12.4832799
50
171.1765807
51
178.3217603
0
ARC
8
front_labelLayer
10
110.2471519
20
104.8476119
40
16.9280616
50
178.0810591
51
180.023637
0
ARC
8
front_labelLayer
10
97.9029616
20
107.8834036
40
5.3504918
50
116.9442865
51
147.6525646
0
ARC
8
front_labelLayer
10
98.4598702
20
106.9519424
40
6.4336194
50
115.8071789
51
117.6067724
0
ARC
8
front_labelLayer
10
98.7445939
20
106.2880674
40
7.1553098
50
94.32267
51
115.5454354
0
ARC
8
front_labelLayer
10
98.9158567
20
104.8001319
40
8.65212
50
89.9578826
51
94.7108983
0
ARC
8
front_labelLayer
10
98.9866413
20
103.0198571
40
10.4325913
50
80.5585432
51
90.3538214
0
ARC
8
front_labelLayer
10
99.6386105
20
106.7963262
40
6.6003727
50
65.1094337
51
80.7638106
0
ARC
8
front_labelLayer
10
100.4007338
20
108.4844137
40
4.7483574
50
46.5584574
51
64.8782286
0
ARC
8
front_labelLayer
10
100.4617347
20
108.6602611
40
4.5793748
50
19.3848759
51
45.5997182
0
ARC
8
front_labelLayer
10
97.8124233
20
107.6661921
40
7.408671
50
6.963361
51
19.8363448
0
ARC
8
front_labelLayer
10
93.7263295
20
107.116811
40
11.5313375
50
359.7631563
51
7.2115622
0
LINE
8
front_labelLayer
10
118.708252
20
97.8685581
11
118.708252
21
95.846976
0
LINE
8
front_labelLayer
10
110.8766113
20
100.7019565
11
110.8766113
21
111.0804721
0
LINE
8
front_labelLayer
10
110.8766113
20
111.0804721
11
108.3774902
21
111.0804721
0
LINE
8
front_labelLayer
10
108.3774902
20
111.0804721
11
108.3774902
21
112.3539096
0
LINE
8
front_labelLayer
10
108.3774902
20
112.3539096
11
110.8766113
21
113.4522495
0
LINE
8
front_labelLayer
10
110.8766113
20
113.4522495
11
111.9908691
21
117.1770542
0
LINE
8
front_labelLayer
10
111.9908691
20
117.1770542
11
113.5189941
21
117.1770542
0
LINE
8
front_labelLayer
10
113.5189941
20
117.1770542
11
113.5189941
21
113.1338901
0
LINE
8
front_labelLayer
10
113.5189941
20
113.1338901
11
118.5809082
21
113.1338901
0
LINE
8
front_labelLayer
10
118.5809082
20
113.1338901
11
118.5809082
21
111.0804721
0
LINE
8
front_labelLayer
10
118.5809082
20
111.0804721
11
113.5189941
21
111.0804721
0
LINE
8
front_labelLayer
10
113.5189941
20
111.0804721
11
113.5189941
21
100.8133823
0
ARC
8
front_labelLayer
10
116.3386778
20
106.2281345
40
8.6779548
50
269.880356
51
278.3028257
0
ARC
8
front_labelLayer
10
116.4207246
20
105.5568014
40
8.0018256
50
278.4156516
51
279.007961
0
ARC
8
front_labelLayer
10
115.4477574
20
111.7724751
40
14.2931833
50
278.9589299
51
280.5104877
0
ARC
8
front_labelLayer
10
116.3754866
20
106.7946963
40
9.2296928
50
280.484792
51
282.6267853
0
ARC
8
front_labelLayer
10
117.1894392
20
103.1785433
40
5.5230693
50
282.5875943
51
285.5795713
0
ARC
8
front_labelLayer
10
117.5987259
20
101.6735243
40
3.9634348
50
285.7236086
51
286.256656
0
ARC
8
front_labelLayer
10
117.5973185
20
98.1966638
40
2.5990778
50
287.9888516
51
295.304805
0
ARC
8
front_labelLayer
10
116.9704533
20
100.0932192
40
4.5965311
50
283.3069408
51
288.1197983
0
ARC
8
front_labelLayer
10
116.3082029
20
102.8556844
40
7.4372605
50
280.0070323
51
283.3734985
0
ARC
8
front_labelLayer
10
115.865184
20
105.2598546
40
9.8818549
50
279.1862958
51
280.1143472
0
ARC
8
front_labelLayer
10
115.5931543
20
106.8071691
40
11.4527726
50
275.5260441
51
279.293954
0
ARC
8
front_labelLayer
10
115.8996489
20
103.6058225
40
8.2367899
50
270.8932382
51
275.5483989
0
ARC
8
front_labelLayer
10
115.9381377
20
102.1455763
40
6.7761393
50
270.0032777
51
270.7603182
0
ARC
8
front_labelLayer
10
115.8318977
20
102.2701321
40
6.9015188
50
253.784794
51
270.8852483
0
ARC
8
front_labelLayer
10
115.0142511
20
99.4816457
40
3.9956404
50
190.3817658
51
253.8772389
0
ARC
8
front_labelLayer
10
119.1817815
20
100.6084727
40
8.3056964
50
179.3551002
51
192.847764
0
ARC
8
front_labelLayer
10
118.8397796
20
100.7801052
40
5.3208895
50
179.6416675
51
189.7505882
0
ARC
8
front_labelLayer
10
116.9613983
20
100.4450731
40
3.4129232
50
189.5479506
51
205.7873617
0
ARC
8
front_labelLayer
10
116.1894679
20
100.0891123
40
2.5630569
50
206.1294428
51
221.4083859
0
ARC
8
front_labelLayer
10
116.1029117
20
100.0234356
40
2.4547115
50
221.5949218
51
262.3505134
0
ARC
8
front_labelLayer
10
116.3087652
20
101.0820124
40
3.5318335
50
261.3266164
51
270.1912896
0
LINE
8
left_outsideCutPath
10
171
20
213
11
171
21
177.31025
0
LINE
8
left_outsideCutPath
10
171
20
177.31025
11
166
21
177.31025
0
LINE
8
left_outsideCutPath
10
166
20
177.31025
11
166
21
149.58615
0
LINE
8
left_outsideCutPath
10
166
20
149.58615
11
171
21
149.58615
0
LINE
8
left_outsideCutPath
10
171
20
149.58615
11
171
21
121.86205
0
LINE
8
left_outsideCutPath
10
171
20
121.86205
11
166
21
121.86205
0
LINE
8
left_outsideCutPath
10
166
20
121.86205
11
166
21
94.13795
0
LINE
8
left_outsideCutPath
10
166
20
94.13795
11
171
21
94.13795
0
LINE
8
left_outsideCutPath
10
171
20
94.13795
11
171
21
66.41385
0
LINE
8
left_outsideCutPath
10
171
20
66.41385
11
166
21
66.41385
0
LINE
8
left_outsideCutPath
10
166
20
66.41385
11
166
21
38.68975
0
LINE
8
left_outsideCutPath
10
166
20
38.68975
11
171
21
38.68975
0
LINE
8
left_outsideCutPath
10
171
20
38.68975
11
171
21
10.96565
0
LINE
8
left_outsideCutPath
10
171
20
10.96565
11
171
21
3
0
LINE
8
left_outsideCutPath
10
171
20
3
11
190.13795
21
3
0
LINE
8
left_outsideCutPath
10
190.13795
20
3
11
190.13795
21
8
0
LINE
8
left_outsideCutPath
10
190.13795
20
8
11
217.86205
21
8
0
LINE
8
left_outsideCutPath
10
217.86205
20
8
11
217.86205
21
3
0
LINE
8
left_outsideCutPath
10
217.86205
20
3
11
237
21
3
0
LINE
8
left_outsideCutPath
10
237
20
3
11
237
21
38.68975
0
LINE
8
left_outsideCutPath
10
237
20
38.68975
11
242
21
38.68975
0
LINE
8
left_outsideCutPath
10
242
20
38.68975
11
242
21
66.41385
0
LINE
8
left_outsideCutPath
10
242
20
66.41385
11
237
21
66.41385
0
LINE
8
left_outsideCutPath
10
237
20
66.41385
11
237
21
94.13795
0
LINE
8
left_outsideCutPath
10
237
20
94.13795
11
242
21
94.13795
0
LINE
8
left_outsideCutPath
10
242
20
94.13795
11
242
21
121.86205
0
LINE
8
left_outsideCutPath
10
242
20
121.86205
11
237
21
121.86205
0
LINE
8
left_outsideCutPath
10
237
20
121.86205
11
237
21
149.58615
0
LINE
8
left_outsideCutPath
10
237
20
149.58615
11
242
21
149.58615
0
LINE
8
left_outsideCutPath
10
242
20
149.58615
11
242
21
177.31025
0
LINE
8
left_outsideCutPath
10
242
20
177.31025
11
237
21
177.31025
0
LINE
8
left_outsideCutPath
10
237
20
177.31025
11
237
21
205.03435
0
LINE
8
left_outsideCutPath
10
237
20
205.03435
11
237
21
213
0
LINE
8
left_outsideCutPath
10
237
20
213
11
217.86205
21
213
0
LINE
8
left_outsideCutPath
10
217.86205
20
213
11
217.86205
21
208
0
LINE
8
left_outsideCutPath
10
217.86205
20
208
11
190.13795
21
208
0
LINE
8
left_outsideCutPath
10
190.13795
20
208
11
190.13795
21
213
0
LINE
8
left_outsideCutPath
10
190.13795
20
213
11
171
21
213
0
LINE
8
left_labelLayer
10
194.6001953
20
113.807778
11
194.6001953
21
102.2593405
0
LINE
8
left_labelLayer
10
194.6001953
20
102.2593405
11
193.368164
21
102.2593405
0
LINE
8
left_labelLayer
10
193.368164
20
102.2593405
11
193.368164
21
113.807778
0
LINE
8
left_labelLayer
10
193.368164
20
113.807778
11
194.6001953
21
113.807778
0
LINE
8
left_labelLayer
10
203.640039
20
106.8831687
11
203.640039
21
106.1038718
0
LINE
8
left_labelLayer
10
203.640039
20
106.1038718
11
198.0365234
21
106.1038718
0
LINE
8
left_labelLayer
10
203.2912109
20
103.7362937
11
203.2912109
21
102.6378562
0
LINE
8
left_labelLayer
10
198.0662109
20
107.1058249
11
202.3189453
21
107.1058249
0
ARC
8
left_labelLayer
10
200.6085137
20
106.8983464
40
4.7876148
50
256.00878
51
270.4848056
0
ARC
8
left_labelLayer
10
200.2598807
20
105.5448846
40
3.3900345
50
223.5465774
51
256.1956946
0
ARC
8
left_labelLayer
10
200.4522054
20
105.6846683
40
3.6258715
50
194.0877243
51
223.0538084
0
ARC
8
left_labelLayer
10
202.2144113
20
106.1665686
40
5.4525116
50
181.3574467
51
194.492009
0
ARC
8
left_labelLayer
10
203.7971276
20
106.2583386
40
7.0371668
50
179.9886619
51
181.7991496
0
ARC
8
left_labelLayer
10
203.2291849
20
106.303128
40
6.4693696
50
168.9539292
51
180.3843455
0
ARC
8
left_labelLayer
10
201.1163193
20
106.7333431
40
4.3132548
50
149.4071016
51
169.1853755
0
ARC
8
left_labelLayer
10
200.5276396
20
107.0443756
40
3.6483601
50
140.105615
51
148.9067314
0
ARC
8
left_labelLayer
10
200.1659737
20
107.3778138
40
3.1571113
50
92.4762731
51
140.538631
0
ARC
8
left_labelLayer
10
200.3271323
20
106.1867985
40
4.3553553
50
89.9638173
51
93.9175761
0
ARC
8
left_labelLayer
10
200.3655865
20
106.7887977
40
3.7535251
50
74.2125805
51
90.5450077
0
ARC
8
left_labelLayer
10
200.6006815
20
107.6549871
40
2.856064
50
41.2064722
51
74.0232739
0
ARC
8
left_labelLayer
10
200.1554597
20
107.2696795
40
3.4448548
50
11.5994134
51
41.1496183
0
ARC
8
left_labelLayer
10
198.6256855
20
106.9168832
40
5.0144668
50
359.6147722
51
12.0336416
0
ARC
8
left_labelLayer
10
202.9804676
20
106.2026611
40
4.9449311
50
181.1447254
51
190.8007029
0
ARC
8
left_labelLayer
10
201.2359407
20
105.8585922
40
3.1668517
50
190.6005848
51
206.0275441
0
ARC
8
left_labelLayer
10
200.4641091
20
105.493703
40
2.3132077
50
206.2950213
51
222.5557981
0
ARC
8
left_labelLayer
10
200.3957193
20
105.4578961
40
2.2387022
50
223.0645102
51
258.1401256
0
ARC
8
left_labelLayer
10
200.6679828
20
106.5789754
40
3.3919967
50
257.5311993
51
270.4319494
0
ARC
8
left_labelLayer
10
200.671022
20
109.6940752
40
6.5070393
50
270.1984051
51
292.2090355
0
ARC
8
left_labelLayer
10
200.35826
20
110.5921578
40
7.4568809
50
291.8255829
51
293.1613254
0
ARC
8
left_labelLayer
10
200.3435924
20
109.4213895
40
7.396268
50
287.9022837
51
293.4861777
0
ARC
8
left_labelLayer
10
200.8801198
20
107.7660003
40
5.6561038
50
281.9935675
51
287.8851409
0
ARC
8
left_labelLayer
10
201.010146
20
107.2986777
40
5.1720502
50
275.9054446
51
281.6603696
0
ARC
8
left_labelLayer
10
200.7498329
20
109.7284596
40
7.6157255
50
271.9119878
51
275.9726923
0
ARC
8
left_labelLayer
10
200.6548187
20
112.1483968
40
10.0374955
50
269.9669193
51
271.9931681
0
ARC
8
left_labelLayer
10
200.2913971
20
107.0820049
40
2.4286226
50
89.4422324
51
106.2089463
0
ARC
8
left_labelLayer
10
200.1452889
20
107.6147403
40
1.8762973
50
106.4656986
51
137.9176452
0
ARC
8
left_labelLayer
10
200.5641829
20
107.2468803
40
2.4337443
50
138.0994566
51
160.5866504
0
ARC
8
left_labelLayer
10
201.6409686
20
106.8507496
40
3.5810104
50
160.335358
51
172.5315113
0
ARC
8
left_labelLayer
10
202.7011857
20
106.6808732
40
4.6544146
50
172.1544868
51
174.7615545
0
ARC
8
left_labelLayer
10
198.1206931
20
107.1296754
40
4.1983199
50
359.6745037
51
8.9224493
0
ARC
8
left_labelLayer
10
199.6208463
20
107.374102
40
2.6784242
50
8.7342266
51
23.277197
0
ARC
8
left_labelLayer
10
200.3330262
20
107.673056
40
1.9060848
50
23.4821699
51
39.7071968
0
ARC
8
left_labelLayer
10
200.5079671
20
107.8039688
40
1.6879
50
40.082287
51
80.62433
0
ARC
8
left_labelLayer
10
200.3279001
20
106.9785426
40
2.5320023
50
79.6468639
51
90.2910299
0
LINE
8
left_labelLayer
10
209.4068359
20
110.3937155
11
209.4068359
21
109.4362937
0
LINE
8
left_labelLayer
10
209.4068359
20
109.4362937
11
207.3361328
21
109.4362937
0
LINE
8
left_labelLayer
10
207.3361328
20
109.4362937
11
207.3361328
21
102.2593405
0
LINE
8
left_labelLayer
10
207.3361328
20
102.2593405
11
206.1041015
21
102.2593405
0
LINE
8
left_labelLayer
10
206.1041015
20
102.2593405
11
206.1041015
21
109.4362937
0
LINE
8
left_labelLayer
10
206.1041015
20
109.4362937
11
204.649414
21
109.4362937
0
LINE
8
left_labelLayer
10
204.649414
20
109.4362937
11
204.649414
21
109.9929343
0
LINE
8
left_labelLayer
10
204.649414
20
109.9929343
11
206.1041015
21
110.4382468
0
LINE
8
left_labelLayer
10
206.1041015
20
110.4382468
11
206.1041015
21
110.8909812
0
LINE
8
left_labelLayer
10
210.2380859
20
113.629653
11
209.9189453
21
112.6425437
0
LINE
8
left_labelLayer
10
207.3361328
20
110.9206687
11
207.3361328
21
110.3937155
0
LINE
8
left_labelLayer
10
207.3361328
20
110.3937155
11
209.4068359
21
110.3937155
0
ARC
8
left_labelLayer
10
211.0970976
20
110.9483824
40
4.993326
50
167.5775982
51
180.6586635
0
ARC
8
left_labelLayer
10
208.7490666
20
111.4958079
40
2.5826746
50
141.7433663
51
168.2322255
0
ARC
8
left_labelLayer
10
208.366764
20
111.6953411
40
2.1604083
50
98.2551484
51
139.6203274
0
ARC
8
left_labelLayer
10
208.7024347
20
110.1446791
40
3.7448019
50
89.6696886
51
99.9314538
0
ARC
8
left_labelLayer
10
208.7033724
20
109.9220587
40
3.9674137
50
81.5640869
51
89.701765
0
ARC
8
left_labelLayer
10
208.4244467
20
107.9761326
40
5.9332129
50
75.9740008
51
81.6564583
0
ARC
8
left_labelLayer
10
207.9458717
20
105.9910875
40
7.9750817
50
73.2963202
51
76.0946487
0
ARC
8
left_labelLayer
10
208.0663329
20
106.9538529
40
5.9827565
50
71.9613385
51
76.5917954
0
ARC
8
left_labelLayer
10
208.5304936
20
108.9228475
40
3.9598016
50
76.5183529
51
83.0216924
0
ARC
8
left_labelLayer
10
208.6921728
20
110.223048
40
2.649591
50
83.0760896
51
89.7927297
0
ARC
8
left_labelLayer
10
208.6868492
20
111.2111635
40
1.6615251
50
89.4858867
51
103.4197377
0
ARC
8
left_labelLayer
10
208.5370518
20
111.7866708
40
1.0670351
50
102.7677502
51
144.3380188
0
ARC
8
left_labelLayer
10
208.8388318
20
111.5925033
40
1.4255386
50
145.0688587
51
162.1801995
0
ARC
8
left_labelLayer
10
209.8735452
20
111.2443744
40
2.5171896
50
161.8437908
51
171.784713
0
ARC
8
left_labelLayer
10
211.5611625
20
110.9908978
40
4.2237202
50
171.652767
51
178.4383491
0
ARC
8
left_labelLayer
10
213.1528886
20
110.9230209
40
5.8167564
50
178.1972864
51
180.0231703
0
LINE
8
left_labelLayer
10
214.6318359
20
103.2761374
11
214.6318359
21
102.3335593
0
LINE
8
left_labelLayer
10
210.9802734
20
104.5972312
11
210.9802734
21
109.4362937
0
LINE
8
left_labelLayer
10
210.9802734
20
109.4362937
11
209.815039
21
109.4362937
0
LINE
8
left_labelLayer
10
209.815039
20
109.4362937
11
209.815039
21
110.0300437
0
LINE
8
left_labelLayer
10
209.815039
20
110.0300437
11
210.9802734
21
110.542153
0
LINE
8
left_labelLayer
10
210.9802734
20
110.542153
11
211.4998047
21
112.2788718
0
LINE
8
left_labelLayer
10
211.4998047
20
112.2788718
11
212.2123047
21
112.2788718
0
LINE
8
left_labelLayer
10
212.2123047
20
112.2788718
11
212.2123047
21
110.3937155
0
LINE
8
left_labelLayer
10
212.2123047
20
110.3937155
11
214.5724609
21
110.3937155
0
LINE
8
left_labelLayer
10
214.5724609
20
110.3937155
11
214.5724609
21
109.4362937
0
LINE
8
left_labelLayer
10
214.5724609
20
109.4362937
11
212.2123047
21
109.4362937
0
LINE
8
left_labelLayer
10
212.2123047
20
109.4362937
11
212.2123047
21
104.6491843
0
ARC
8
left_labelLayer
10
213.5270052
20
107.1738482
40
4.0461571
50
269.8803361
51
278.3028182
0
ARC
8
left_labelLayer
10
213.5654756
20
106.8594442
40
3.7295002
50
278.4154933
51
279.0080269
0
ARC
8
left_labelLayer
10
213.1115399
20
109.7593603
40
6.6647264
50
278.9589298
51
280.5103898
0
ARC
8
left_labelLayer
10
213.5442405
20
107.4376563
40
4.3030461
50
280.4846949
51
282.6268719
0
ARC
8
left_labelLayer
10
213.923605
20
105.7522538
40
2.5754772
50
282.5877444
51
285.5793685
0
ARC
8
left_labelLayer
10
214.1152336
20
105.0477381
40
1.8453854
50
285.7229911
51
286.2567885
0
ARC
8
left_labelLayer
10
214.1138615
20
103.4291028
40
1.2118222
50
287.9887871
51
295.3048477
0
ARC
8
left_labelLayer
10
213.8215773
20
104.3133984
40
2.1431627
50
283.3068788
51
288.1197477
0
ARC
8
left_labelLayer
10
213.5128096
20
105.6013658
40
3.4676203
50
280.0069543
51
283.3734781
0
ARC
8
left_labelLayer
10
213.3059359
20
106.7241562
40
4.6092855
50
279.1864374
51
280.1141274
0
ARC
8
left_labelLayer
10
213.1794193
20
107.4436719
40
5.3397802
50
275.5259809
51
279.2940056
0
ARC
8
left_labelLayer
10
213.3223034
20
105.9512113
40
3.8404966
50
270.8932291
51
275.5483531
0
ARC
8
left_labelLayer
10
213.3402408
20
105.2711974
40
3.1602944
50
270.0034237
51
270.7602564
0
ARC
8
left_labelLayer
10
213.290714
20
105.3284099
40
3.2178909
50
253.7848121
51
270.8852409
0
ARC
8
left_labelLayer
10
212.9094793
20
104.0282516
40
1.8629976
50
190.381759
51
253.8772481
0
ARC
8
left_labelLayer
10
214.8526231
20
104.553644
40
3.8725952
50
179.3551066
51
192.8477689
0
ARC
8
left_labelLayer
10
214.6931461
20
104.633667
40
2.48089
50
179.6416287
51
189.7506129
0
ARC
8
left_labelLayer
10
213.8173534
20
104.4774575
40
1.5913031
50
189.5479498
51
205.7873463
0
ARC
8
left_labelLayer
10
213.4574302
20
104.3114857
40
1.1950409
50
206.1294206
51
221.4084149
0
ARC
8
left_labelLayer
10
213.4170759
20
104.2808649
40
1.1445275
50
221.5949023
51
262.3505171
0
ARC
8
left_labelLayer
10
213.5130573
20
104.7744348
40
1.6467442
50
261.3265959
51
270.1912707
0
LINE
8
top_outsideCutPath
10
250
20
74
11
250
21
54.86205
0
LINE
8
top_outsideCutPath
10
250
20
54.86205
11
245
21
54.86205
0
LINE
8
top_outsideCutPath
10
245
20
54.86205
11
245
21
27.13795
0
LINE
8
top_outsideCutPath
10
245
20
27.13795
11
250
21
27.13795
0
LINE
8
top_outsideCutPath
10
250
20
27.13795
11
250
21
8
0
LINE
8
top_outsideCutPath
10
250
20
8
11
284.91385
21
8
0
LINE
8
top_outsideCutPath
10
284.91385
20
8
11
284.91385
21
3
0
LINE
8
top_outsideCutPath
10
284.91385
20
3
11
312.63795
21
3
0
LINE
8
top_outsideCutPath
10
312.63795
20
3
11
312.63795
21
8
0
LINE
8
top_outsideCutPath
10
312.63795
20
8
11
340.36205
21
8
0
LINE
8
top_outsideCutPath
10
340.36205
20
8
11
340.36205
21
3
0
LINE
8
top_outsideCutPath
10
340.36205
20
3
11
368.08615
21
3
0
LINE
8
top_outsideCutPath
10
368.08615
20
3
11
368.08615
21
8
0
LINE
8
top_outsideCutPath
10
368.08615
20
8
11
395.81025
21
8
0
LINE
8
top_outsideCutPath
10
395.81025
20
8
11
403
21
8
0
LINE
8
top_outsideCutPath
10
403
20
8
11
403
21
27.13795
0
LINE
8
top_outsideCutPath
10
403
20
27.13795
11
408
21
27.13795
0
LINE
8
top_outsideCutPath
10
408
20
27.13795
11
408
21
54.86205
0
LINE
8
top_outsideCutPath
10
408
20
54.86205
11
403
21
54.86205
0
LINE
8
top_outsideCutPath
10
403
20
54.86205
11
403
21
74
0
LINE
8
top_outsideCutPath
10
403
20
74
11
368.08615
21
74
0
LINE
8
top_outsideCutPath
10
368.08615
20
74
11
368.08615
21
79
0
LINE
8
top_outsideCutPath
10
368.08615
20
79
11
340.36205
21
79
0
LINE
8
top_outsideCutPath
10
340.36205
20
79
11
340.36205
21
74
0
LINE
8
top_outsideCutPath
10
340.36205
20
74
11
312.63795
21
74
0
LINE
8
top_outsideCutPath
10
312.63795
20
74
11
312.63795
21
79
0
LINE
8
top_outsideCutPath
10
312.63795
20
79
11
284.91385
21
79
0
LINE
8
top_outsideCutPath
10
284.91385
20
79
11
284.91385
21
74
0
LINE
8
top_outsideCutPath
10
284.91385
20
74
11
257.18975
21
74
0
LINE
8
top_outsideCutPath
10
257.18975
20
74
11
250
21
74
0
LINE
8
top_labelLayer
10
319.9241559
20
38.8328125
11
319.9241559
21
37.8902344
0
LINE
8
top_labelLayer
10
316.2725934
20
40.1539063
11
316.2725934
21
44.9929688
0
LINE
8
top_labelLayer
10
316.2725934
20
44.9929688
11
315.107359
21
44.9929688
0
LINE
8
top_labelLayer
10
315.107359
20
44.9929688
11
315.107359
21
45.5867188
0
LINE
8
top_labelLayer
10
315.107359
20
45.5867188
11
316.2725934
21
46.0988281
0
LINE
8
top_labelLayer
10
316.2725934
20
46.0988281
11
316.7921246
21
47.8355469
0
LINE
8
top_labelLayer
10
316.7921246
20
47.8355469
11
317.5046246
21
47.8355469
0
LINE
8
top_labelLayer
10
317.5046246
20
47.8355469
11
317.5046246
21
45.9503906
0
LINE
8
top_labelLayer
10
317.5046246
20
45.9503906
11
319.8647809
21
45.9503906
0
LINE
8
top_labelLayer
10
319.8647809
20
45.9503906
11
319.8647809
21
44.9929688
0
LINE
8
top_labelLayer
10
319.8647809
20
44.9929688
11
317.5046246
21
44.9929688
0
LINE
8
top_labelLayer
10
317.5046246
20
44.9929688
11
317.5046246
21
40.2058594
0
ARC
8
top_labelLayer
10
318.8193252
20
42.7305233
40
4.0461571
50
269.8803361
51
278.3028182
0
ARC
8
top_labelLayer
10
318.8577956
20
42.4161192
40
3.7295002
50
278.4154933
51
279.0080269
0
ARC
8
top_labelLayer
10
318.4038599
20
45.3160354
40
6.6647264
50
278.9589298
51
280.5103898
0
ARC
8
top_labelLayer
10
318.8365605
20
42.9943314
40
4.3030461
50
280.4846949
51
282.6268719
0
ARC
8
top_labelLayer
10
319.215925
20
41.3089288
40
2.5754772
50
282.5877444
51
285.5793685
0
ARC
8
top_labelLayer
10
319.4075536
20
40.6044132
40
1.8453854
50
285.7229911
51
286.2567885
0
ARC
8
top_labelLayer
10
319.4061814
20
38.9857779
40
1.2118222
50
287.9887871
51
295.3048477
0
ARC
8
top_labelLayer
10
319.1138973
20
39.8700735
40
2.1431627
50
283.3068788
51
288.1197477
0
ARC
8
top_labelLayer
10
318.8051296
20
41.1580409
40
3.4676203
50
280.0069543
51
283.3734781
0
ARC
8
top_labelLayer
10
318.5982559
20
42.2808312
40
4.6092855
50
279.1864374
51
280.1141274
0
ARC
8
top_labelLayer
10
318.4717393
20
43.0003469
40
5.3397802
50
275.5259809
51
279.2940056
0
ARC
8
top_labelLayer
10
318.6146233
20
41.5078863
40
3.8404966
50
270.8932291
51
275.5483531
0
ARC
8
top_labelLayer
10
318.6325608
20
40.8278725
40
3.1602944
50
270.0034237
51
270.7602564
0
ARC
8
top_labelLayer
10
318.583034
20
40.8850849
40
3.2178909
50
253.7848121
51
270.8852409
0
ARC
8
top_labelLayer
10
318.2017993
20
39.5849267
40
1.8629976
50
190.381759
51
253.8772481
0
ARC
8
top_labelLayer
10
320.1449431
20
40.1103191
40
3.8725952
50
179.3551066
51
192.8477689
0
ARC
8
top_labelLayer
10
319.9854661
20
40.1903421
40
2.48089
50
179.6416287
51
189.7506129
0
ARC
8
top_labelLayer
10
319.1096734
20
40.0341326
40
1.5913031
50
189.5479498
51
205.7873463
0
ARC
8
top_labelLayer
10
318.7497501
20
39.8681608
40
1.1950409
50
206.1294206
51
221.4084149
0
ARC
8
top_labelLayer
10
318.7093958
20
39.83754
40
1.1445275
50
221.5949023
51
262.3505171
0
ARC
8
top_labelLayer
10
318.8053773
20
40.3311099
40
1.6467442
50
261.3265959
51
270.1912707
0
ARC
8
top_labelLayer
10
322.2068381
20
41.8477223
40
6.3639468
50
349.1761933
51
0.386264
0
ARC
8
top_labelLayer
10
324.3494259
20
41.4205943
40
4.1793022
50
330.2507111
51
349.4116357
0
ARC
8
top_labelLayer
10
325.0088043
20
41.077877
40
3.4368962
50
318.143985
51
329.756608
0
ARC
8
top_labelLayer
10
325.1278198
20
40.9824974
40
3.2846182
50
278.8959079
51
317.997923
0
ARC
8
top_labelLayer
10
324.8211784
20
42.4516415
40
4.7841088
50
269.7502867
51
279.8033232
0
ARC
8
top_labelLayer
10
324.7714466
20
41.6238681
40
3.9563954
50
253.5436923
51
270.4182558
0
ARC
8
top_labelLayer
10
324.6397478
20
41.1144233
40
3.4305585
50
238.8115681
51
253.2428327
0
ARC
8
top_labelLayer
10
324.5972425
20
41.028944
40
3.3354313
50
207.7947061
51
238.6757962
0
ARC
8
top_labelLayer
10
325.2071504
20
41.402482
40
4.0494148
50
205.6560055
51
208.4461141
0
ARC
8
top_labelLayer
10
325.6769289
20
41.5982234
40
4.5577071
50
188.9102463
51
205.3171422
0
ARC
8
top_labelLayer
10
327.2601195
20
41.8663645
40
6.1633551
50
179.774469
51
189.0932837
0
ARC
8
top_labelLayer
10
327.493662
20
41.933953
40
6.3969965
50
169.2442973
51
180.3880777
0
ARC
8
top_labelLayer
10
325.3212954
20
42.3633507
40
4.1826918
50
150.7111587
51
169.4695376
0
ARC
8
top_labelLayer
10
324.627798
20
42.7194882
40
3.4037416
50
138.1759383
51
150.2287627
0
ARC
8
top_labelLayer
10
324.5124479
20
42.8080051
40
3.2587744
50
99.1759396
51
137.9832706
0
ARC
8
top_labelLayer
10
324.8299527
20
41.3137895
40
4.7850908
50
89.7326457
51
100.0759793
0
ARC
8
top_labelLayer
10
324.8934105
20
41.9590984
40
4.1399341
50
73.5222681
51
90.5692336
0
ARC
8
top_labelLayer
10
325.1361925
20
42.8411887
40
3.2252546
50
41.1445709
51
73.2133824
0
ARC
8
top_labelLayer
10
324.6727397
20
42.4428579
40
3.836348
50
13.501435
51
41.0703398
0
ARC
8
top_labelLayer
10
322.8821926
20
41.9742961
40
5.6869308
50
1.1277212
51
13.8799972
0
ARC
8
top_labelLayer
10
321.3400737
20
41.8916472
40
7.2305667
50
359.9919004
51
1.5420146
0
ARC
8
top_labelLayer
10
328.6122756
20
41.8586086
40
6.2389832
50
179.7059754
51
187.9160893
0
ARC
8
top_labelLayer
10
326.3240126
20
41.5299012
40
3.9272689
50
187.763934
51
200.0976875
0
ARC
8
top_labelLayer
10
325.0634149
20
41.0680164
40
2.5847178
50
200.084588
51
216.9131565
0
ARC
8
top_labelLayer
10
324.6030894
20
40.7393227
40
2.0192976
50
217.3009559
51
261.7099067
0
ARC
8
top_labelLayer
10
324.816787
20
41.7590584
40
3.0598682
50
260.5032986
51
270.2476999
0
ARC
8
top_labelLayer
10
324.8575762
20
41.5607788
40
2.8616928
50
269.448177
51
284.7255795
0
ARC
8
top_labelLayer
10
325.0841202
20
40.7206026
40
1.9915353
50
284.5662293
51
322.6333796
0
ARC
8
top_labelLayer
10
324.5544508
20
41.1032647
40
2.6447992
50
323.0089295
51
342.6390572
0
ARC
8
top_labelLayer
10
323.0394804
20
41.5984007
40
4.2385471
50
342.3615744
51
353.7537611
0
ARC
8
top_labelLayer
10
320.8043804
20
41.8678127
40
6.4897375
50
353.5363095
51
0.201403
0
ARC
8
top_labelLayer
10
321.1468648
20
41.9220019
40
6.147293
50
359.7075509
51
7.8972852
0
ARC
8
top_labelLayer
10
323.3981636
20
42.2447486
40
3.8730148
50
7.7439833
51
20.0690172
0
ARC
8
top_labelLayer
10
324.65268
20
42.7051081
40
2.5367002
50
20.0257232
51
37.4350319
0
ARC
8
top_labelLayer
10
325.0689261
20
43.0004694
40
2.0267285
50
37.9577614
51
80.4006289
0
ARC
8
top_labelLayer
10
324.8323905
20
41.9450721
40
3.1073192
50
79.3453488
51
90.3175019
0
ARC
8
top_labelLayer
10
324.788591
20
42.1203722
40
2.932092
50
89.4805842
51
103.8804895
0
ARC
8
top_labelLayer
10
324.5422208
20
43.0585534
40
1.9622544
50
103.4685342
51
142.311876
0
ARC
8
top_labelLayer
10
325.0211881
20
42.7217104
40
2.547354
50
142.9025826
51
162.3749487
0
ARC
8
top_labelLayer
10
326.5303957
20
42.2187702
40
4.1380608
50
162.0653003
51
173.1675038
0
ARC
8
top_labelLayer
10
328.8837123
20
41.9186196
40
6.5103978
50
173.0086367
51
180.2463712
0
LINE
8
top_labelLayer
10
331.9624371
20
38.8625
11
331.8733746
21
38.8625
0
LINE
8
top_labelLayer
10
331.9624371
20
37.5117188
11
331.9624371
21
34.1644531
0
LINE
8
top_labelLayer
10
331.9624371
20
34.1644531
11
330.7304059
21
34.1644531
0
LINE
8
top_labelLayer
10
330.7304059
20
34.1644531
11
330.7304059
21
45.9503906
0
LINE
8
top_labelLayer
10
330.7304059
20
45.9503906
11
331.732359
21
45.9503906
0
LINE
8
top_labelLayer
10
331.732359
20
45.9503906
11
331.9030621
21
44.8371094
0
LINE
8
top_labelLayer
10
331.9030621
20
44.8371094
11
331.9624371
21
44.8371094
0
LINE
8
top_labelLayer
10
331.9624371
20
42.1652344
11
331.9624371
21
41.890625
0
ARC
8
top_labelLayer
10
334.4947865
20
41.4045394
40
3.737019
50
255.7755315
51
270.318533
0
ARC
8
top_labelLayer
10
334.3881372
20
40.9307178
40
3.2515449
50
245.9801477
51
255.5456005
0
ARC
8
top_labelLayer
10
334.1815818
20
40.4503739
40
2.7287261
50
215.5850159
51
245.8361713
0
ARC
8
top_labelLayer
10
320.305802
20
37.4007458
40
11.6595652
50
2.9503326
51
7.2020962
0
ARC
8
top_labelLayer
10
322.1922479
20
37.506288
40
9.7701909
50
0.0318476
51
2.9016205
0
ARC
8
top_labelLayer
10
334.6763576
20
42.9311205
40
3.3163471
50
132.356519
51
144.919596
0
ARC
8
top_labelLayer
10
334.1683222
20
43.485369
40
2.5644917
50
115.4006198
51
132.3118152
0
ARC
8
top_labelLayer
10
334.3664889
20
43.0029545
40
3.0854006
50
97.7066393
51
114.8821545
0
ARC
8
top_labelLayer
10
334.5048868
20
42.105394
40
3.9934485
50
89.8468363
51
97.9474482
0
ARC
8
top_labelLayer
10
334.5536936
20
42.322533
40
3.7764876
50
74.1923442
51
90.5785299
0
ARC
8
top_labelLayer
10
334.8150052
20
43.2724529
40
2.7913182
50
38.0523433
51
74.0417342
0
ARC
8
top_labelLayer
10
334.0942592
20
42.7200318
40
3.6993817
50
16.3356092
51
37.9090587
0
ARC
8
top_labelLayer
10
332.2008536
20
42.1368509
40
5.6804436
50
4.5766441
51
16.608884
0
ARC
8
top_labelLayer
10
329.8697616
20
41.9045775
40
8.0227658
50
359.9003561
51
4.9017975
0
ARC
8
top_labelLayer
10
330.6689503
20
41.8480082
40
7.2236906
50
350.6562786
51
0.3380236
0
ARC
8
top_labelLayer
10
333.1872514
20
41.4196724
40
4.6692793
50
335.830591
51
350.8254849
0
ARC
8
top_labelLayer
10
334.2949997
20
40.9415525
40
3.4629215
50
321.3161562
51
335.5436139
0
ARC
8
top_labelLayer
10
334.7185038
20
40.5964618
40
2.9166456
50
274.0640033
51
321.4081016
0
ARC
8
top_labelLayer
10
334.5212087
20
41.8461809
40
4.1786067
50
269.922576
51
275.5481918
0
ARC
8
top_labelLayer
10
334.3120619
20
41.5024734
40
3.5499611
50
89.5904449
51
100.350192
0
ARC
8
top_labelLayer
10
334.0589229
20
42.8323127
40
2.1963043
50
100.086823
51
118.1918002
0
ARC
8
top_labelLayer
10
333.7996027
20
43.3380707
40
1.6280677
50
118.5569327
51
141.0243356
0
ARC
8
top_labelLayer
10
334.1947564
20
43.0593358
40
2.1108272
50
141.889049
51
160.5973045
0
ARC
8
top_labelLayer
10
335.5834861
20
42.5497723
40
3.5900184
50
160.2895952
51
171.2452934
0
ARC
8
top_labelLayer
10
337.8667862
20
42.181631
40
5.9027713
50
171.0868488
51
178.3247603
0
ARC
8
top_labelLayer
10
339.8039122
20
42.0895916
40
7.8418399
50
178.0663351
51
179.4473138
0
ARC
8
top_labelLayer
10
340.108469
20
41.8588178
40
8.146094
50
179.7762823
51
185.7075373
0
ARC
8
top_labelLayer
10
336.8967654
20
41.5278975
40
4.9174123
50
185.5924926
51
194.2050542
0
ARC
8
top_labelLayer
10
334.8393622
20
40.9939315
40
2.7919145
50
193.9430451
51
208.0218393
0
ARC
8
top_labelLayer
10
334.0069425
20
40.5704589
40
1.8582097
50
208.5537059
51
217.5605392
0
ARC
8
top_labelLayer
10
333.939114
20
40.5422438
40
1.7873425
50
218.1690389
51
253.804726
0
ARC
8
top_labelLayer
10
334.2706334
20
41.5643553
40
2.8615516
50
253.1382669
51
266.8482949
0
ARC
8
top_labelLayer
10
334.3635919
20
42.6606316
40
3.9614143
50
266.3775809
51
270.0510962
0
ARC
8
top_labelLayer
10
334.3951784
20
40.774955
40
2.0759258
50
269.2256905
51
292.0430342
0
ARC
8
top_labelLayer
10
334.4231871
20
40.6080322
40
1.911045
50
293.1429758
51
324.1353786
0
ARC
8
top_labelLayer
10
334.0070844
20
40.9603371
40
2.4550164
50
323.1615154
51
325.015292
0
ARC
8
top_labelLayer
10
333.5614145
20
41.2366823
40
2.9787429
50
325.5753689
51
344.1504731
0
ARC
8
top_labelLayer
10
332.0199642
20
41.6923497
40
4.5860718
50
343.9336423
51
355.1137257
0
ARC
8
top_labelLayer
10
330.0522284
20
41.8920142
40
6.5637382
50
354.8402355
51
0.1174469
0
ARC
8
top_labelLayer
10
330.3988495
20
41.936847
40
6.2171825
50
359.7108255
51
7.8610547
0
ARC
8
top_labelLayer
10
332.6594039
20
42.259084
40
3.9338113
50
7.714968
51
19.8859673
0
ARC
8
top_labelLayer
10
333.9026588
20
42.7081527
40
2.6119396
50
19.8991478
51
35.8980107
0
ARC
8
top_labelLayer
10
334.4572094
20
43.1281263
40
1.9165292
50
35.4481645
51
85.2266614
0
ARC
8
top_labelLayer
10
334.341361
20
42.4016267
40
2.6507199
50
84.0379239
51
90.0848156
0
LINE
8
back_outsideCutPath
10
0
20
426
11
0
21
390.31025
0
LINE
8
back_outsideCutPath
10
0
20
390.31025
11
5
21
390.31025
0
LINE
8
back_outsideCutPath
10
5
20
390.31025
11
5
21
362.58615
0
LINE
8
back_outsideCutPath
10
5
20
362.58615
11
0
21
362.58615
0
LINE
8
back_outsideCutPath
10
0
20
362.58615
11
0
21
334.86205
0
LINE
8
back_outsideCutPath
10
0
20
334.86205
11
5
21
334.86205
0
LINE
8
back_outsideCutPath
10
5
20
334.86205
11
5
21
307.13795
0
LINE
8
back_outsideCutPath
10
5
20
307.13795
11
0
21
307.13795
0
LINE
8
back_outsideCutPath
10
0
20
307.13795
11
0
21
279.41385
0
LINE
8
back_outsideCutPath
10
0
20
279.41385
11
5
21
279.41385
0
LINE
8
back_outsideCutPath
10
5
20
279.41385
11
5
21
251.68975
0
LINE
8
back_outsideCutPath
10
5
20
251.68975
11
0
21
251.68975
0
LINE
8
back_outsideCutPath
10
0
20
251.68975
11
0
21
223.96565
0
LINE
8
back_outsideCutPath
10
0
20
223.96565
11
0
21
216
0
LINE
8
back_outsideCutPath
10
0
20
216
11
39.91385
21
216
0
LINE
8
back_outsideCutPath
10
39.91385
20
216
11
39.91385
21
221
0
LINE
8
back_outsideCutPath
10
39.91385
20
221
11
67.63795
21
221
0
LINE
8
back_outsideCutPath
10
67.63795
20
221
11
67.63795
21
216
0
LINE
8
back_outsideCutPath
10
67.63795
20
216
11
95.36205
21
216
0
LINE
8
back_outsideCutPath
10
95.36205
20
216
11
95.36205
21
221
0
LINE
8
back_outsideCutPath
10
95.36205
20
221
11
123.08615
21
221
0
LINE
8
back_outsideCutPath
10
123.08615
20
221
11
123.08615
21
216
0
LINE
8
back_outsideCutPath
10
123.08615
20
216
11
150.81025
21
216
0
LINE
8
back_outsideCutPath
10
150.81025
20
216
11
163
21
216
0
LINE
8
back_outsideCutPath
10
163
20
216
11
163
21
251.68975
0
LINE
8
back_outsideCutPath
10
163
20
251.68975
11
158
21
251.68975
0
LINE
8
back_outsideCutPath
10
158
20
251.68975
11
158
21
279.41385
0
LINE
8
back_outsideCutPath
10
158
20
279.41385
11
163
21
279.41385
0
LINE
8
back_outsideCutPath
10
163
20
279.41385
11
163
21
307.13795
0
LINE
8
back_outsideCutPath
10
163
20
307.13795
11
158
21
307.13795
0
LINE
8
back_outsideCutPath
10
158
20
307.13795
11
158
21
334.86205
0
LINE
8
back_outsideCutPath
10
158
20
334.86205
11
163
21
334.86205
0
LINE
8
back_outsideCutPath
10
163
20
334.86205
11
163
21
362.58615
0
LINE
8
back_outsideCutPath
10
163
20
362.58615
11
158
21
362.58615
0
LINE
8
back_outsideCutPath
10
158
20
362.58615
11
158
21
390.31025
0
LINE
8
back_outsideCutPath
10
158
20
390.31025
11
163
21
390.31025
0
LINE
8
back_outsideCutPath
10
163
20
390.31025
11
163
21
418.03435
0
LINE
8
back_outsideCutPath
10
163
20
418.03435
11
163
21
426
0
LINE
8
back_outsideCutPath
10
163
20
426
11
123.08615
21
426
0
LINE
8
back_outsideCutPath
10
123.08615
20
426
11
123.08615
21
421
0
LINE
8
back_outsideCutPath
10
123.08615
20
421
11
95.36205
21
421
0
LINE
8
back_outsideCutPath
10
95.36205
20
421
11
95.36205
21
426
0
LINE
8
back_outsideCutPath
10
95.36205
20
426
11
67.63795
21
426
0
LINE
8
back_outsideCutPath
10
67.63795
20
426
11
67.63795
21
421
0
LINE
8
back_outsideCutPath
10
67.63795
20
421
11
39.91385
21
421
0
LINE
8
back_outsideCutPath
10
39.91385
20
421
11
39.91385
21
426
0
LINE
8
back_outsideCutPath
10
39.91385
20
426
11
12.18975
21
426
0
LINE
8
back_outsideCutPath
10
12.18975
20
426
11
0
21
426
0
LINE
8
back_labelLayer
10
50.3485352
20
311.0196134
11
50.1575195
21
311.0196134
0
LINE
8
back_labelLayer
10
50.1575195
20
311.0196134
11
49.6003906
21
308.7751798
0
LINE
8
back_labelLayer
10
49.6003906
20
308.7751798
11
47.7061523
21
308.7751798
0
LINE
8
back_labelLayer
10
47.7061523
20
308.7751798
11
47.7061523
21
333.5435392
0
LINE
8
back_labelLayer
10
47.7061523
20
333.5435392
11
50.3485352
21
333.5435392
0
LINE
8
back_labelLayer
10
50.3485352
20
333.5435392
11
50.3485352
21
327.526547
0
LINE
8
back_labelLayer
10
50.2211914
20
323.8972501
11
50.3485352
21
323.8972501
0
ARC
8
back_labelLayer
10
55.9035849
20
318.4321494
40
8.0760366
50
74.2393309
51
90.5623824
0
ARC
8
back_labelLayer
10
56.4375999
20
320.3912047
40
6.045611
50
38.5631278
51
74.0670405
0
ARC
8
back_labelLayer
10
55.0633371
20
319.3226357
40
7.7863265
50
16.4709315
51
38.4075262
0
ARC
8
back_labelLayer
10
51.1042952
20
318.0811966
40
11.9350814
50
5.1338482
51
16.7973385
0
ARC
8
back_labelLayer
10
46.1063846
20
317.550282
40
16.9606461
50
359.8779223
51
5.4093663
0
ARC
8
back_labelLayer
10
47.5743564
20
317.4227393
40
15.4929054
50
350.6562854
51
0.3380368
0
ARC
8
back_labelLayer
10
52.9754286
20
316.5040785
40
10.0143867
50
335.8305993
51
350.8254762
0
ARC
8
back_labelLayer
10
55.3512728
20
315.4786311
40
7.4270499
50
321.3161499
51
335.543618
0
ARC
8
back_labelLayer
10
56.2595729
20
314.7385046
40
6.2554369
50
274.0640029
51
321.4081054
0
ARC
8
back_labelLayer
10
55.8364249
20
317.4189002
40
8.962088
50
269.9225885
51
275.5481563
0
ARC
8
back_labelLayer
10
55.779757
20
316.4716181
40
8.0149215
50
255.7755377
51
270.318541
0
ARC
8
back_labelLayer
10
55.5510352
20
315.455429
40
6.9737428
50
245.9801681
51
255.5455733
0
ARC
8
back_labelLayer
10
55.1080169
20
314.4251855
40
5.8524002
50
215.5850174
51
245.8361692
0
ARC
8
back_labelLayer
10
-4.7432334
20
327.4799784
40
55.0917882
50
358.1123207
51
0.0484316
0
ARC
8
back_labelLayer
10
10.5900295
20
326.9651934
40
39.7498904
50
355.7238572
51
358.1259045
0
ARC
8
back_labelLayer
10
17.3667587
20
326.4993981
40
32.9573197
50
355.4714935
51
355.6529304
0
ARC
8
back_labelLayer
10
55.2764643
20
320.4608721
40
6.0077599
50
95.1835159
51
145.1108951
0
ARC
8
back_labelLayer
10
55.8045247
20
317.4830973
40
9.0247216
50
89.8743469
51
96.8145459
0
ARC
8
back_labelLayer
10
55.3869655
20
316.8700868
40
7.4253186
50
89.5731344
51
100.732424
0
ARC
8
back_labelLayer
10
54.8372857
20
319.6472624
40
4.5944167
50
100.4469486
51
119.6700713
0
ARC
8
back_labelLayer
10
54.3275673
20
320.6002438
40
3.5141859
50
120.1403054
51
142.4248943
0
ARC
8
back_labelLayer
10
55.1708586
20
320.0423806
40
4.5233005
50
143.3382446
51
161.2559846
0
ARC
8
back_labelLayer
10
58.6973419
20
318.7903617
40
8.2652429
50
160.8926386
51
171.233418
0
ARC
8
back_labelLayer
10
64.5843656
20
317.8406464
40
14.2282967
50
171.0667755
51
177.8456877
0
ARC
8
back_labelLayer
10
70.7069613
20
317.5292535
40
20.3584318
50
177.617673
51
180.0425216
0
ARC
8
back_labelLayer
10
67.8196504
20
317.4459227
40
17.4712484
50
179.77627
51
185.7075181
0
ARC
8
back_labelLayer
10
60.9313278
20
316.7361817
40
10.5465117
50
185.5924727
51
194.20507
0
ARC
8
back_labelLayer
10
56.5187793
20
315.5909708
40
5.9879184
50
193.9430311
51
208.0218339
0
ARC
8
back_labelLayer
10
54.7334452
20
314.6827237
40
3.9853513
50
208.5536636
51
217.5605416
0
ARC
8
back_labelLayer
10
54.5879881
20
314.622223
40
3.833381
50
218.1690425
51
253.8047143
0
ARC
8
back_labelLayer
10
55.2990052
20
316.814361
40
6.137254
50
253.138242
51
266.8483177
0
ARC
8
back_labelLayer
10
55.4983838
20
319.1656777
40
8.4962628
50
266.3775867
51
270.0510711
0
ARC
8
back_labelLayer
10
55.562323
20
315.9366841
40
5.2675676
50
269.386891
51
285.8630555
0
ARC
8
back_labelLayer
10
55.9536694
20
314.5223004
40
3.80009
50
286.0162913
51
326.8497307
0
ARC
8
back_labelLayer
10
54.0648191
20
315.773593
40
6.0657802
50
326.7105136
51
343.6661645
0
ARC
8
back_labelLayer
10
50.5290149
20
316.8540181
40
9.7628211
50
343.4171399
51
353.6369071
0
ARC
8
back_labelLayer
10
45.188522
20
317.4877023
40
15.1406918
50
353.4934846
51
0.2205388
0
ARC
8
back_labelLayer
10
44.7178034
20
317.6091717
40
15.611426
50
359.7680806
51
6.3095246
0
ARC
8
back_labelLayer
10
50.5982898
20
318.2839918
40
9.6924279
50
6.164874
51
16.0396321
0
ARC
8
back_labelLayer
10
54.3864459
20
319.40036
40
5.7433466
50
15.7779299
51
32.0151429
0
ARC
8
back_labelLayer
10
55.5677605
20
320.076862
40
4.3833738
50
32.7034164
51
35.5242869
0
ARC
8
back_labelLayer
10
55.9997484
20
320.3839041
40
3.8533862
50
35.5408448
51
79.8011191
0
ARC
8
back_labelLayer
10
55.4822794
20
318.1840487
40
6.1112816
50
78.6781171
51
90.3749652
0
LINE
8
back_labelLayer
10
80.3698242
20
308.7751798
11
78.4119141
21
308.7751798
0
LINE
8
back_labelLayer
10
78.4119141
20
308.7751798
11
77.8866211
21
311.2583829
0
LINE
8
back_labelLayer
10
77.8866211
20
311.2583829
11
77.7592773
21
311.2583829
0
LINE
8
back_labelLayer
10
74.8303711
20
319.1377775
11
77.7911133
21
319.2332853
0
LINE
8
back_labelLayer
10
77.7911133
20
319.2332853
11
77.7911133
21
320.3157072
0
LINE
8
back_labelLayer
10
69.1476562
20
322.9899259
11
68.3358398
21
325.0115079
0
LINE
8
back_labelLayer
10
80.3698242
20
320.6818204
11
80.3698242
21
308.7751798
0
LINE
8
back_labelLayer
10
77.7274414
20
315.7790861
11
77.7274414
21
317.354965
0
LINE
8
back_labelLayer
10
77.7274414
20
317.354965
11
75.0850586
21
317.2435392
0
ARC
8
back_labelLayer
10
69.1619907
20
318.0463618
40
10.9539945
50
314.744509
51
321.7071793
0
ARC
8
back_labelLayer
10
71.853223
20
315.3118625
40
7.1173373
50
304.8485566
51
314.8530764
0
ARC
8
back_labelLayer
10
73.1460257
20
313.4716927
40
4.8684637
50
294.3932772
51
304.737127
0
ARC
8
back_labelLayer
10
72.7043505
20
314.6161127
40
6.0935413
50
281.2979627
51
293.7313602
0
ARC
8
back_labelLayer
10
72.1204766
20
317.4458729
40
8.9828712
50
272.9335173
51
281.4139047
0
ARC
8
back_labelLayer
10
71.9269443
20
320.3483173
40
11.8915008
50
269.9539305
51
273.1490834
0
ARC
8
back_labelLayer
10
71.8600988
20
316.5657313
40
8.1091132
50
258.6719729
51
270.4047495
0
ARC
8
back_labelLayer
10
71.2968275
20
313.871273
40
5.3565548
50
238.3273049
51
258.9183848
0
ARC
8
back_labelLayer
10
70.9086668
20
313.1631184
40
4.5502508
50
227.7689255
51
237.8049992
0
ARC
8
back_labelLayer
10
70.7872553
20
312.9936308
40
4.3432185
50
192.0827687
51
227.4520719
0
ARC
8
back_labelLayer
10
73.0264407
20
313.5456103
40
6.6487199
50
179.5457286
51
192.6949273
0
ARC
8
back_labelLayer
10
70.9462545
20
313.7863446
40
4.5721924
50
115.4904638
51
182.3568139
0
ARC
8
back_labelLayer
10
73.2360596
20
309.5863705
40
9.3523688
50
101.3568227
51
117.0798639
0
ARC
8
back_labelLayer
10
75.0749791
20
300.9929439
40
18.1399899
50
92.4696193
51
101.7064997
0
ARC
8
back_labelLayer
10
75.6035042
20
293.3380967
40
25.8112622
50
91.7164558
51
92.9095644
0
ARC
8
back_labelLayer
10
70.2016805
20
320.3563293
40
7.5895415
50
359.6933297
51
8.0035913
0
ARC
8
back_labelLayer
10
73.0726337
20
320.7745678
40
4.688342
50
7.8272802
51
20.6041539
0
ARC
8
back_labelLayer
10
74.6972836
20
321.396076
40
2.9489169
50
20.4094113
51
41.4479485
0
ARC
8
back_labelLayer
10
74.9373248
20
321.5280182
40
2.6823255
50
42.7295681
51
71.038023
0
ARC
8
back_labelLayer
10
74.3721893
20
319.9914023
40
4.3193347
50
70.5716321
51
83.9928734
0
ARC
8
back_labelLayer
10
74.1022026
20
317.7983085
40
6.5287573
50
83.6506794
51
90.1753078
0
ARC
8
back_labelLayer
10
74.1495619
20
315.7242814
40
8.6030174
50
90.4484552
51
103.7665519
0
ARC
8
back_labelLayer
10
75.1612252
20
311.4580438
40
12.9874832
50
103.6226453
51
112.4320108
0
ARC
8
back_labelLayer
10
76.8953569
20
307.0794875
40
17.6965793
50
112.2122224
51
115.9640943
0
ARC
8
back_labelLayer
10
74.1182927
20
314.2880212
40
12.1831822
50
106.3568578
51
118.3349902
0
ARC
8
back_labelLayer
10
74.6373363
20
312.6846381
40
13.8679209
50
104.5162466
51
106.5489445
0
ARC
8
back_labelLayer
10
74.2566661
20
314.2706249
40
12.2371818
50
90.0714483
51
104.6521067
0
ARC
8
back_labelLayer
10
74.3046914
20
315.348007
40
11.1599694
50
81.5679802
51
90.3249105
0
ARC
8
back_labelLayer
10
74.9499458
20
319.5516557
40
6.907177
50
68.2273386
51
81.7494265
0
ARC
8
back_labelLayer
10
75.8486777
20
321.7877755
40
4.4972166
50
47.8683155
51
68.2934198
0
ARC
8
back_labelLayer
10
75.9945431
20
322.0790232
40
4.1842827
50
19.2330922
51
46.6741204
0
ARC
8
back_labelLayer
10
73.5646488
20
321.1750979
40
6.776527
50
6.3379067
51
19.6815302
0
ARC
8
back_labelLayer
10
69.9726815
20
320.7176273
40
10.3972045
50
359.8026789
51
6.6583581
0
ARC
8
back_labelLayer
10
72.496107
20
317.9126296
40
7.2752436
50
269.5792018
51
282.0413646
0
ARC
8
back_labelLayer
10
73.0267856
20
315.558767
40
4.8625437
50
281.7120893
51
306.4593945
0
ARC
8
back_labelLayer
10
73.2620817
20
315.1717998
40
4.4116769
50
306.9881515
51
313.8559385
0
ARC
8
back_labelLayer
10
73.234103
20
315.1637691
40
4.425346
50
314.1891887
51
347.4269861
0
ARC
8
back_labelLayer
10
71.0173206
20
315.7192831
40
6.7101598
50
346.9177738
51
0.2824516
0
ARC
8
back_labelLayer
10
69.3158952
20
315.7790697
40
8.4115461
50
359.8180789
51
0.0001113
0
ARC
8
back_labelLayer
10
75.7136077
20
297.8517389
40
19.4019843
50
91.856486
51
96.4478373
0
ARC
8
back_labelLayer
10
74.8386344
20
305.4231349
40
11.7802385
50
96.3545441
51
102.9953199
0
ARC
8
back_labelLayer
10
73.6509177
20
310.4693835
40
6.5961872
50
102.7995319
51
113.2433177
0
ARC
8
back_labelLayer
10
72.6718196
20
312.8110153
40
4.0582943
50
113.5886803
51
121.6804634
0
ARC
8
back_labelLayer
10
71.9915436
20
313.8470649
40
2.8195725
50
120.9734031
51
172.4179864
0
ARC
8
back_labelLayer
10
73.3211666
20
313.5814808
40
4.1735373
50
171.2122088
51
180.2058212
0
ARC
8
back_labelLayer
10
72.9237892
20
313.5352863
40
3.7762618
50
179.5265771
51
192.7787369
0
ARC
8
back_labelLayer
10
71.6463532
20
313.2256304
40
2.462051
50
192.3264623
51
222.057974
0
ARC
8
back_labelLayer
10
71.5513458
20
313.1688208
40
2.3535533
50
222.5805197
51
229.2546463
0
ARC
8
back_labelLayer
10
71.8724198
20
313.5821988
40
2.8764229
50
229.7836983
51
254.272419
0
ARC
8
back_labelLayer
10
72.3000636
20
315.0072809
40
4.3641442
50
253.9396669
51
266.4533904
0
ARC
8
back_labelLayer
10
72.4365571
20
316.5806532
40
5.9430742
50
266.078338
51
270.0589888
0
LINE
8
back_labelLayer
10
97.4498047
20
325.6323087
11
96.6379883
21
323.3878751
0
LINE
8
back_labelLayer
10
97.1951172
20
311.7040861
11
97.1951172
21
309.3641447
0
ARC
8
back_labelLayer
10
92.7015593
20
318.3321081
40
9.8756473
50
256.4243744
51
270.4889782
0
ARC
8
back_labelLayer
10
91.9124011
20
315.2520922
40
6.6965917
50
221.7976317
51
256.8020549
0
ARC
8
back_labelLayer
10
92.6766124
20
315.8167377
40
7.6431622
50
196.0166675
51
221.1349182
0
ARC
8
back_labelLayer
10
96.5174593
20
316.990697
40
11.6590304
50
183.5913776
51
196.3539517
0
ARC
8
back_labelLayer
10
100.8200893
20
317.3697495
40
15.977325
50
179.9388524
51
183.9815088
0
ARC
8
back_labelLayer
10
99.4221091
20
317.4806692
40
14.5796379
50
169.8978453
51
180.3688909
0
ARC
8
back_labelLayer
10
94.3466022
20
318.4195622
40
9.4181949
50
153.0875187
51
170.1051357
0
ARC
8
back_labelLayer
10
92.4208486
20
319.3397392
40
7.2846831
50
138.6550131
51
152.6853576
0
ARC
8
back_labelLayer
10
92.0614233
20
319.6016643
40
6.8419422
50
101.4912913
51
138.3133931
0
ARC
8
back_labelLayer
10
92.8865683
20
316.1674952
40
10.3724044
50
89.5891911
51
102.1787711
0
ARC
8
back_labelLayer
10
92.9500191
20
314.6153237
40
11.9243142
50
77.7702361
51
89.9475375
0
ARC
8
back_labelLayer
10
92.7243056
20
313.3701154
40
13.189148
50
74.6796992
51
77.9578369
0
ARC
8
back_labelLayer
10
93.9434641
20
317.7869188
40
8.6071856
50
70.094564
51
74.7386082
0
ARC
8
back_labelLayer
10
95.1031248
20
320.964973
40
5.2241802
50
63.503367
51
70.1861368
0
ARC
8
back_labelLayer
10
95.6509046
20
322.1126024
40
3.9527679
50
62.9287057
51
63.1878351
0
ARC
8
back_labelLayer
10
92.2972363
20
312.4637119
40
11.7549764
50
68.3294393
51
74.8831336
0
ARC
8
back_labelLayer
10
91.6770724
20
310.2647084
40
14.0396398
50
74.7801765
51
77.4497277
0
ARC
8
back_labelLayer
10
92.3281726
20
313.320848
40
10.91508
50
77.2998894
51
81.7345075
0
ARC
8
back_labelLayer
10
92.803074
20
316.6299445
40
7.5720867
50
81.691014
51
87.5079226
0
ARC
8
back_labelLayer
10
92.8946883
20
318.3420178
40
5.8576743
50
87.6750325
51
89.9747902
0
ARC
8
back_labelLayer
10
92.7662754
20
318.3399593
40
5.8611962
50
88.7194066
51
112.5667586
0
ARC
8
back_labelLayer
10
92.3497969
20
319.7169447
40
4.4321494
50
114.4265681
51
161.6632816
0
ARC
8
back_labelLayer
10
96.4870825
20
318.0975662
40
8.8719458
50
160.1418393
51
175.1368195
0
ARC
8
back_labelLayer
10
102.1815582
20
317.4581211
40
14.6009476
50
174.5309853
51
180.1549409
0
ARC
8
back_labelLayer
10
100.3774617
20
317.3525564
40
12.7969683
50
179.7041371
51
188.07437
0
ARC
8
back_labelLayer
10
95.768146
20
316.6781638
40
8.138648
50
187.9315276
51
200.3885474
0
ARC
8
back_labelLayer
10
93.2758531
20
315.7548956
40
5.4808415
50
200.4183386
51
216.63927
0
ARC
8
back_labelLayer
10
92.2310247
20
315.0079746
40
4.1967881
50
216.9695419
51
261.3102978
0
ARC
8
back_labelLayer
10
92.6921289
20
317.1577183
40
6.392863
50
260.1359436
51
270.2692246
0
ARC
8
back_labelLayer
10
92.6708452
20
321.8261375
40
11.0613306
50
270.2658438
51
286.2891468
0
ARC
8
back_labelLayer
10
91.9984027
20
324.3339065
40
13.6571669
50
286.0460641
51
292.3653947
0
ARC
8
back_labelLayer
10
93.7892171
20
316.0643635
40
7.5161884
50
282.0344329
51
296.9454464
0
ARC
8
back_labelLayer
10
93.0162228
20
319.5479659
40
11.0844384
50
272.5980631
51
282.1878313
0
ARC
8
back_labelLayer
10
92.794563
20
322.9474806
40
14.4906629
50
269.9655088
51
272.8643039
0
LINE
8
back_labelLayer
10
103.8169922
20
317.7051603
11
103.9443359
21
317.7051603
0
LINE
8
back_labelLayer
10
106.0295898
20
320.2520353
11
111.6645508
21
326.2212736
0
LINE
8
back_labelLayer
10
111.6645508
20
326.2212736
11
114.8003906
21
326.2212736
0
LINE
8
back_labelLayer
10
114.8003906
20
326.2212736
11
107.7328125
21
318.7875822
0
LINE
8
back_labelLayer
10
107.7328125
20
318.7875822
11
115.2938477
21
308.7751798
0
LINE
8
back_labelLayer
10
115.2938477
20
308.7751798
11
112.0943359
21
308.7751798
0
LINE
8
back_labelLayer
10
112.0943359
20
308.7751798
11
105.934082
21
317.0206876
0
LINE
8
back_labelLayer
10
105.934082
20
317.0206876
11
103.9443359
21
315.301547
0
LINE
8
back_labelLayer
10
103.9443359
20
315.301547
11
103.9443359
21
308.7751798
0
LINE
8
back_labelLayer
10
103.9443359
20
308.7751798
11
101.3337891
21
308.7751798
0
LINE
8
back_labelLayer
10
101.3337891
20
308.7751798
11
101.3337891
21
333.5435392
0
LINE
8
back_labelLayer
10
101.3337891
20
333.5435392
11
103.9443359
21
333.5435392
0
LINE
8
back_labelLayer
10
103.9443359
20
333.5435392
11
103.9443359
21
320.411215
0
ARC
8
back_labelLayer
10
116.7117786
20
308.6678371
40
15.6422761
50
142.3233671
51
144.7075636
0
ARC
8
back_labelLayer
10
125.0421838
20
302.2424073
40
26.1628168
50
140.433123
51
142.3365641
0
ARC
8
back_labelLayer
10
135.8979365
20
293.3062061
40
40.2234929
50
139.2799162
51
140.4703397
0
ARC
8
back_labelLayer
10
148.448449
20
282.5136148
40
56.7762976
50
138.3417455
51
139.2877243
0
ARC
8
back_labelLayer
10
86.3354371
20
320.4441759
40
17.6089297
50
358.2739363
51
359.8927519
0
ARC
8
back_labelLayer
10
72.6395075
20
320.8258359
40
31.3101563
50
357.504119
51
358.3307513
0
ARC
8
back_labelLayer
10
52.1325584
20
321.7315885
40
51.8370963
50
356.6325193
51
357.4910039
0
ARC
8
back_labelLayer
10
18.04905
20
323.7194816
40
85.9785239
50
356.0329266
51
356.6442463
0
ARC
8
back_labelLayer
10
-4.2692714
20
325.2246542
40
108.3475112
50
356.0203804
51
356.055394
0
LINE
8
right_outsideCutPath
10
171
20
426
11
171
21
390.31025
0
LINE
8
right_outsideCutPath
10
171
20
390.31025
11
166
21
390.31025
0
LINE
8
right_outsideCutPath
10
166
20
390.31025
11
166
21
362.58615
0
LINE
8
right_outsideCutPath
10
166
20
362.58615
11
171
21
362.58615
0
LINE
8
right_outsideCutPath
10
171
20
362.58615
11
171
21
334.86205
0
LINE
8
right_outsideCutPath
10
171
20
334.86205
11
166
21
334.86205
0
LINE
8
right_outsideCutPath
10
166
20
334.86205
11
166
21
307.13795
0
LINE
8
right_outsideCutPath
10
166
20
307.13795
11
171
21
307.13795
0
LINE
8
right_outsideCutPath
10
171
20
307.13795
11
171
21
279.41385
0
LINE
8
right_outsideCutPath
10
171
20
279.41385
11
166
21
279.41385
0
LINE
8
right_outsideCutPath
10
166
20
279.41385
11
166
21
251.68975
0
LINE
8
right_outsideCutPath
10
166
20
251.68975
11
171
21
251.68975
0
LINE
8
right_outsideCutPath
10
171
20
251.68975
11
171
21
223.96565
0
LINE
8
right_outsideCutPath
10
171
20
223.96565
11
171
21
216
0
LINE
8
right_outsideCutPath
10
171
20
216
11
190.13795
21
216
0
LINE
8
right_outsideCutPath
10
190.13795
20
216
11
190.13795
21
221
0
LINE
8
right_outsideCutPath
10
190.13795
20
221
11
217.86205
21
221
0
LINE
8
right_outsideCutPath
10
217.86205
20
221
11
217.86205
21
216
0
LINE
8
right_outsideCutPath
10
217.86205
20
216
11
237
21
216
0
LINE
8
right_outsideCutPath
10
237
20
216
11
237
21
251.68975
0
LINE
8
right_outsideCutPath
10
237
20
251.68975
11
242
21
251.68975
0
LINE
8
right_outsideCutPath
10
242
20
251.68975
11
242
21
279.41385
0
LINE
8
right_outsideCutPath
10
242
20
279.41385
11
237
21
279.41385
0
LINE
8
right_outsideCutPath
10
237
20
279.41385
11
237
21
307.13795
0
LINE
8
right_outsideCutPath
10
237
20
307.13795
11
242
21
307.13795
0
LINE
8
right_outsideCutPath
10
242
20
307.13795
11
242
21
334.86205
0
LINE
8
right_outsideCutPath
10
242
20
334.86205
11
237
21
334.86205
0
LINE
8
right_outsideCutPath
10
237
20
334.86205
11
237
21
362.58615
0
LINE
8
right_outsideCutPath
10
237
20
362.58615
11
242
21
362.58615
0
LINE
8
right_outsideCutPath
10
242
20
362.58615
11
242
21
390.31025
0
LINE
8
right_outsideCutPath
10
242
20
390.31025
11
237
21
390.31025
0
LINE
8
right_outsideCutPath
10
237
20
390.31025
11
237
21
418.03435
0
LINE
8
right_outsideCutPath
10
237
20
418.03435
11
237
21
426
0
LINE
8
right_outsideCutPath
10
237
20
426
11
217.86205
21
426
0
LINE
8
right_outsideCutPath
10
217.86205
20
426
11
217.86205
21
421
0
LINE
8
right_outsideCutPath
10
217.86205
20
421
11
190.13795
21
421
0
LINE
8
right_outsideCutPath
10
190.13795
20
421
11
190.13795
21
426
0
LINE
8
right_outsideCutPath
10
190.13795
20
426
11
171
21
426
0
LINE
8
right_labelLayer
10
192.9599609
20
325.2453573
11
192.7892578
21
324.1023886
0
LINE
8
right_labelLayer
10
189.508789
20
321.4156698
11
189.508789
21
317.0516073
0
LINE
8
right_labelLayer
10
189.508789
20
317.0516073
11
188.2767578
21
317.0516073
0
LINE
8
right_labelLayer
10
188.2767578
20
317.0516073
11
188.2767578
21
325.1859823
0
LINE
8
right_labelLayer
10
188.2767578
20
325.1859823
11
189.2935547
21
325.1859823
0
LINE
8
right_labelLayer
10
189.2935547
20
325.1859823
11
189.4345703
21
323.6793417
0
LINE
8
right_labelLayer
10
189.4345703
20
323.6793417
11
189.4939453
21
323.6793417
0
ARC
8
right_labelLayer
10
192.0003412
20
319.6783569
40
5.6560771
50
84.9923048
51
90.1281022
0
ARC
8
right_labelLayer
10
192.1361695
20
321.2002027
40
4.1281844
50
78.4891821
51
85.0265678
0
ARC
8
right_labelLayer
10
191.608945
20
318.8022417
40
5.4299811
50
77.4454163
51
81.6360017
0
ARC
8
right_labelLayer
10
191.8455404
20
320.4330706
40
3.7820837
50
81.5883775
51
87.191702
0
ARC
8
right_labelLayer
10
191.8969126
20
321.3238741
40
2.8898432
50
87.3436947
51
89.9658939
0
ARC
8
right_labelLayer
10
191.8849789
20
322.0790152
40
2.1347452
50
89.6335312
51
137.0880808
0
ARC
8
right_labelLayer
10
192.4088665
20
321.4898829
40
2.920523
50
135.6208588
51
138.837701
0
ARC
8
right_labelLayer
10
192.3321161
20
321.564802
40
2.8134363
50
138.957571
51
174.5422201
0
ARC
8
right_labelLayer
10
193.2484316
20
321.4214298
40
3.739647
50
173.6907994
51
180.0882493
0
ARC
8
right_labelLayer
10
193.1188433
20
321.6370914
40
4.1606095
50
139.4139383
51
150.6032964
0
ARC
8
right_labelLayer
10
192.3728397
20
322.2763387
40
3.1781847
50
124.2321361
51
139.4161237
0
ARC
8
right_labelLayer
10
191.9739639
20
322.8784415
40
2.4560167
50
89.6796619
51
124.4405697
0
LINE
8
right_labelLayer
10
195.7134765
20
325.1859823
11
195.7134765
21
317.0516073
0
LINE
8
right_labelLayer
10
195.7134765
20
317.0516073
11
194.4814453
21
317.0516073
0
LINE
8
right_labelLayer
10
194.4814453
20
317.0516073
11
194.4814453
21
325.1859823
0
LINE
8
right_labelLayer
10
194.4814453
20
325.1859823
11
195.7134765
21
325.1859823
0
ARC
8
right_labelLayer
10
195.7427357
20
327.3987268
40
1.3652228
50
170.8451344
51
180.3545326
0
ARC
8
right_labelLayer
10
195.2316594
20
327.4841824
40
0.8470659
50
155.9678582
51
171.0516398
0
ARC
8
right_labelLayer
10
194.984115
20
327.5940048
40
0.5762544
50
133.7880019
51
155.9171899
0
ARC
8
right_labelLayer
10
195.0755097
20
327.492964
40
0.7124515
50
92.6446025
51
133.4710554
0
ARC
8
right_labelLayer
10
195.104378
20
327.2662675
40
0.9404181
50
89.9692451
51
93.7643486
0
ARC
8
right_labelLayer
10
195.1161317
20
327.4808752
40
0.7258974
50
46.3708414
51
90.887925
0
ARC
8
right_labelLayer
10
195.1883753
20
327.5554577
40
0.6220663
50
17.7252087
51
46.4473293
0
ARC
8
right_labelLayer
10
194.8514729
20
327.4394432
40
0.9783283
50
4.9428554
51
18.1900025
0
ARC
8
right_labelLayer
10
194.4228704
20
327.3931114
40
1.4093591
50
359.8848625
51
5.3181031
0
ARC
8
right_labelLayer
10
194.5575367
20
327.3816219
40
1.2747193
50
349.8345156
51
0.3891303
0
ARC
8
right_labelLayer
10
195.0216118
20
327.2950498
40
0.8026566
50
332.6321469
51
350.0706258
0
ARC
8
right_labelLayer
10
195.2022329
20
327.2058592
40
0.6012628
50
313.6153481
51
332.2677404
0
ARC
8
right_labelLayer
10
195.1151835
20
327.285121
40
0.7187438
50
269.1788377
51
314.2807426
0
ARC
8
right_labelLayer
10
195.0967165
20
327.3490122
40
0.7826037
50
250.499955
51
270.5978779
0
ARC
8
right_labelLayer
10
195.073033
20
327.2604535
40
0.6912569
50
225.1300789
51
249.9001355
0
ARC
8
right_labelLayer
10
195.0359506
20
327.2194909
40
0.63607
50
197.7933528
51
224.89421
0
ARC
8
right_labelLayer
10
195.3830115
20
327.3384253
40
1.0028996
50
184.9925093
51
198.2040422
0
ARC
8
right_labelLayer
10
195.8321108
20
327.3872447
40
1.4545749
50
179.8804692
51
185.3687308
0
LINE
8
right_labelLayer
10
202.1705078
20
325.1859823
11
204.9833984
21
325.1859823
0
LINE
8
right_labelLayer
10
204.9833984
20
325.1859823
11
204.9833984
21
324.4066855
0
LINE
8
right_labelLayer
10
204.9833984
20
324.4066855
11
203.4767578
21
324.2285605
0
LINE
8
right_labelLayer
10
200.7009765
20
318.3430136
11
202.1408203
21
318.3430136
0
LINE
8
right_labelLayer
10
201.7474609
20
317.2371542
11
200.2705078
21
317.2371542
0
ARC
8
right_labelLayer
10
201.9067228
20
322.9860547
40
2.0022064
50
29.4583956
51
38.3576437
0
ARC
8
right_labelLayer
10
201.0886072
20
322.5190193
40
2.9442377
50
23.184497
51
29.5423001
0
ARC
8
right_labelLayer
10
200.3082523
20
322.1729435
40
3.7978359
50
21.2505705
51
23.3490451
0
ARC
8
right_labelLayer
10
201.634844
20
322.7005316
40
2.3702489
50
6.8504569
51
20.9872109
0
ARC
8
right_labelLayer
10
200.9672509
20
322.6100175
40
3.0438895
50
359.8711042
51
7.0431779
0
ARC
8
right_labelLayer
10
201.18691
20
322.5738023
40
2.8243755
50
342.5649885
51
0.5957653
0
ARC
8
right_labelLayer
10
201.7078104
20
322.4299635
40
2.2843867
50
310.6097819
51
342.0923558
0
ARC
8
right_labelLayer
10
201.4157108
20
322.769729
40
2.7324521
50
284.9315688
51
310.6222725
0
ARC
8
right_labelLayer
10
201.0501813
20
324.0505871
40
4.0643114
50
272.5334701
51
285.2579878
0
ARC
8
right_labelLayer
10
200.9562013
20
325.3342834
40
5.3510361
50
269.9691514
51
272.9311988
0
ARC
8
right_labelLayer
10
200.9445323
20
323.9427771
40
3.9595388
50
263.4836764
51
270.1271654
0
ARC
8
right_labelLayer
10
200.8800378
20
323.330177
40
3.3435816
50
259.4963295
51
263.3903904
0
ARC
8
right_labelLayer
10
201.2792053
20
318.0961075
40
2.1923488
50
117.3934978
51
128.4095316
0
ARC
8
right_labelLayer
10
200.7148125
20
318.796279
40
1.2930766
50
128.0882255
51
147.1400014
0
ARC
8
right_labelLayer
10
200.4107461
20
319.0003321
40
0.9269666
50
147.5369208
51
180.2592042
0
ARC
8
right_labelLayer
10
200.1222833
20
318.9882466
40
0.638543
50
179.2918407
51
198.3581394
0
ARC
8
right_labelLayer
10
200.0027313
20
318.9568263
40
0.515239
50
199.2291522
51
239.5691034
0
ARC
8
right_labelLayer
10
200.1023165
20
319.0945521
40
0.6846212
50
238.2208676
51
239.8445304
0
ARC
8
right_labelLayer
10
200.1809451
20
319.2564874
40
0.8642431
50
240.7303061
51
254.5026674
0
ARC
8
right_labelLayer
10
200.4168209
20
320.0693128
40
1.7105711
50
254.1637508
51
262.2123205
0
ARC
8
right_labelLayer
10
200.6036581
20
321.3742754
40
3.0288263
50
262.0555332
51
267.2083118
0
ARC
8
right_labelLayer
10
200.6939191
20
323.0298988
40
4.6868905
50
267.0919689
51
270.0862745
0
ARC
8
right_labelLayer
10
202.1677533
20
313.2998727
40
5.0432128
50
81.5744198
51
90.3059871
0
ARC
8
right_labelLayer
10
202.4443835
20
315.1040017
40
3.218036
50
68.3671389
51
81.7399147
0
ARC
8
right_labelLayer
10
202.8056893
20
316.0273698
40
2.2265117
50
52.1879805
51
68.2500636
0
ARC
8
right_labelLayer
10
203.0585088
20
316.3680285
40
1.8024087
50
8.6201324
51
51.8982464
0
ARC
8
right_labelLayer
10
202.172431
20
316.1805429
40
2.7070884
50
359.7430831
51
9.7326376
0
ARC
8
right_labelLayer
10
202.2121209
20
316.1348754
40
2.667582
50
340.5268869
51
0.7201684
0
ARC
8
right_labelLayer
10
202.6040515
20
316.0372907
40
2.2658688
50
302.9903752
51
339.5494409
0
ARC
8
right_labelLayer
10
202.1917302
20
316.5614539
40
2.9306484
50
303.1872175
51
304.1719685
0
ARC
8
right_labelLayer
10
201.8091879
20
317.2239821
40
3.6947486
50
286.2542229
51
302.5280178
0
ARC
8
right_labelLayer
10
201.1113954
20
319.5256284
40
6.0997622
50
276.493991
51
286.495353
0
ARC
8
right_labelLayer
10
200.6760196
20
323.1651213
40
9.7651662
50
269.7545092
51
276.616967
0
ARC
8
right_labelLayer
10
200.6016629
20
320.3026961
40
6.9027279
50
262.5634654
51
270.2699049
0
ARC
8
right_labelLayer
10
200.2635829
20
317.7968587
40
4.3742241
50
251.2102074
51
262.7063836
0
ARC
8
right_labelLayer
10
199.7762868
20
316.3665708
40
2.8632045
50
235.9668023
51
251.2229147
0
ARC
8
right_labelLayer
10
199.2598011
20
315.6297496
40
1.9635899
50
208.9036209
51
236.4231548
0
ARC
8
right_labelLayer
10
199.3072165
20
315.6098739
40
1.9958995
50
182.2079828
51
207.7461582
0
ARC
8
right_labelLayer
10
199.9107215
20
315.6701597
40
2.6015421
50
179.9784405
51
183.0226638
0
ARC
8
right_labelLayer
10
199.1927254
20
315.704189
40
1.8838356
50
138.3916185
51
181.0052625
0
ARC
8
right_labelLayer
10
199.391662
20
315.5254037
40
2.1513011
50
113.812155
51
138.3496188
0
ARC
8
right_labelLayer
10
199.7690181
20
314.7105331
40
3.0492018
50
102.2870821
51
114.1172742
0
ARC
8
right_labelLayer
10
199.650444
20
318.8534163
40
1.2786881
50
216.586159
51
245.4968703
0
ARC
8
right_labelLayer
10
199.8330382
20
319.0083824
40
1.5177489
50
215.4648571
51
217.1750794
0
ARC
8
right_labelLayer
10
199.5285984
20
318.7884907
40
1.142212
50
182.1767585
51
215.341537
0
ARC
8
right_labelLayer
10
199.7999745
20
318.8176108
40
1.4146231
50
179.9836868
51
182.937885
0
ARC
8
right_labelLayer
10
199.794201
20
318.8299231
40
1.4088998
50
161.7226152
51
180.4843304
0
ARC
8
right_labelLayer
10
199.6392946
20
318.8721907
40
1.2485812
50
144.4963427
51
161.3350283
0
ARC
8
right_labelLayer
10
200.0522253
20
318.5644386
40
1.7635004
50
132.7259201
51
144.1479545
0
ARC
8
right_labelLayer
10
200.7140132
20
317.8577301
40
2.7316799
50
125.2212158
51
132.8655782
0
ARC
8
right_labelLayer
10
201.3794084
20
316.9337467
40
3.8702823
50
121.2352555
51
125.3794527
0
ARC
8
right_labelLayer
10
200.199878
20
322.2380915
40
2.1598507
50
215.1640873
51
247.4747866
0
ARC
8
right_labelLayer
10
200.6030817
20
322.56349
40
2.6770889
50
212.4714432
51
215.8875498
0
ARC
8
right_labelLayer
10
200.4970299
20
322.4876177
40
2.5468929
50
183.0160922
51
212.3123179
0
ARC
8
right_labelLayer
10
201.0558562
20
322.5499085
40
3.1083955
50
179.975887
51
183.6207129
0
ARC
8
right_labelLayer
10
201.5068755
20
322.5812819
40
3.5595416
50
166.8195693
51
180.4839476
0
ARC
8
right_labelLayer
10
200.3260379
20
322.8794187
40
2.3419247
50
132.3287807
51
167.3340873
0
ARC
8
right_labelLayer
10
200.484019
20
322.6523327
40
2.616439
50
106.2188998
51
131.5377479
0
ARC
8
right_labelLayer
10
200.8837375
20
321.3580801
40
3.9708898
50
93.6329542
51
106.5408898
0
ARC
8
right_labelLayer
10
201.0142316
20
319.8930077
40
5.4414152
50
89.9380279
51
94.0267448
0
ARC
8
right_labelLayer
10
201.0353628
20
320.612032
40
4.7224124
50
82.5851864
51
90.1849715
0
ARC
8
right_labelLayer
10
201.1796522
20
321.7284256
40
3.5967337
50
74.0089253
51
82.5694165
0
ARC
8
right_labelLayer
10
199.7339353
20
315.6691536
40
1.2373701
50
179.2207288
51
200.9355401
0
ARC
8
right_labelLayer
10
199.5867894
20
315.6350824
40
1.0879619
50
202.0286858
51
236.1457321
0
ARC
8
right_labelLayer
10
199.8085518
20
315.9166534
40
1.4455924
50
235.0634005
51
238.5041078
0
ARC
8
right_labelLayer
10
200.0663749
20
316.377164
40
1.9730649
50
239.1066191
51
254.4862906
0
ARC
8
right_labelLayer
10
200.4101222
20
317.5623938
40
3.2070858
50
254.2324016
51
263.4937263
0
ARC
8
right_labelLayer
10
200.6260438
20
319.3912197
40
5.0486049
50
263.4108457
51
270.1457651
0
ARC
8
right_labelLayer
10
200.6488974
20
320.4509388
40
6.1083159
50
269.9061106
51
270.0011822
0
ARC
8
right_labelLayer
10
200.6785482
20
322.6249476
40
8.2823773
50
269.7957529
51
275.3990995
0
ARC
8
right_labelLayer
10
200.988529
20
319.4426633
40
5.0850527
50
275.2957105
51
283.3515919
0
ARC
8
right_labelLayer
10
201.4935609
20
317.3625363
40
2.9445445
50
283.1370381
51
295.8572965
0
ARC
8
right_labelLayer
10
201.8677585
20
316.5456045
40
2.0462954
50
296.4048517
51
301.8009201
0
ARC
8
right_labelLayer
10
202.0144814
20
316.3433664
40
1.7971895
50
301.2230984
51
318.6237957
0
ARC
8
right_labelLayer
10
202.3453982
20
316.0376852
40
1.346861
50
319.0765422
51
1.1406979
0
ARC
8
right_labelLayer
10
202.0251306
20
316.0777021
40
1.6669138
50
359.5461367
51
10.990446
0
ARC
8
right_labelLayer
10
202.6690051
20
316.2086642
40
1.0098981
50
10.6609072
51
30.9361501
0
ARC
8
right_labelLayer
10
202.873157
20
316.3219611
40
0.7765836
50
31.5095354
51
58.0777905
0
ARC
8
right_labelLayer
10
202.6818206
20
315.9793666
40
1.1686894
50
58.9971999
51
73.858636
0
ARC
8
right_labelLayer
10
202.2950815
20
314.713294
40
2.4924448
50
73.4100305
51
81.5907004
0
ARC
8
right_labelLayer
10
201.9674064
20
312.5927838
40
4.6380982
50
81.4172472
51
86.5756755
0
ARC
8
right_labelLayer
10
201.7666078
20
309.3978882
40
7.8392892
50
86.5054485
51
90.1399405
0
ARC
8
right_labelLayer
10
200.2528871
20
314.4051205
40
2.8320886
50
89.6435141
51
100.0208829
0
ARC
8
right_labelLayer
10
200.074887
20
315.3734376
40
1.8475828
50
99.8103
51
116.8229424
0
ARC
8
right_labelLayer
10
199.9014945
20
315.7390992
40
1.4430602
50
117.230431
51
130.502308
0
ARC
8
right_labelLayer
10
199.8124677
20
315.8535207
40
1.2982521
50
130.7944723
51
169.0413531
0
ARC
8
right_labelLayer
10
200.4680521
20
315.699128
40
1.9714162
50
168.2580625
51
180.3820581
0
ARC
8
right_labelLayer
10
201.5694774
20
322.5625109
40
2.4048993
50
179.5617812
51
191.652898
0
ARC
8
right_labelLayer
10
200.7333196
20
322.3818562
40
1.5495073
50
191.3555234
51
213.3660262
0
ARC
8
right_labelLayer
10
200.5325162
20
322.2659103
40
1.3181031
50
213.9573754
51
227.7971238
0
ARC
8
right_labelLayer
10
200.7072187
20
322.4777983
40
1.5924737
50
228.2620857
51
254.7341254
0
ARC
8
right_labelLayer
10
200.9304107
20
323.2429031
40
2.3893876
50
254.4016353
51
267.4348883
0
ARC
8
right_labelLayer
10
200.9886412
20
324.0237137
40
3.172107
50
267.0153475
51
270.0323046
0
ARC
8
right_labelLayer
10
201.0267012
20
323.5354085
40
2.6840462
50
269.225696
51
284.3773092
0
ARC
8
right_labelLayer
10
201.3925328
20
322.2608458
40
1.3590909
50
282.7796529
51
346.4828621
0
ARC
8
right_labelLayer
10
200.2987965
20
322.5706541
40
2.4953605
50
345.4362249
51
0.7466122
0
ARC
8
right_labelLayer
10
200.1450583
20
322.6410541
40
2.6491579
50
359.1806132
51
15.0431945
0
ARC
8
right_labelLayer
10
201.3454352
20
322.991218
40
1.3992864
50
13.9535646
51
77.6673851
0
ARC
8
right_labelLayer
10
201.0010324
20
321.7570217
40
2.6795528
50
76.1095202
51
90.7028283
0
ARC
8
right_labelLayer
10
200.9494818
20
321.851296
40
2.5851444
50
89.585934
51
101.33343
0
ARC
8
right_labelLayer
10
200.7647405
20
322.7324315
40
1.684905
50
101.0620757
51
121.9738741
0
ARC
8
right_labelLayer
10
200.6349081
20
322.9659956
40
1.4180891
50
122.5211226
51
134.9966388
0
ARC
8
right_labelLayer
10
200.6883603
20
322.9339737
40
1.4786051
50
135.5839823
51
163.0015892
0
ARC
8
right_labelLayer
10
201.4691674
20
322.678052
40
2.3001775
50
162.5911796
51
175.7343465
0
ARC
8
right_labelLayer
10
202.4057062
20
322.5857937
40
3.2410613
50
175.3393771
51
180.0864364
0
LINE
8
right_labelLayer
10
213.4517578
20
317.0516073
11
212.2197265
21
317.0516073
0
LINE
8
right_labelLayer
10
212.2197265
20
317.0516073
11
212.2197265
21
322.3137167
0
LINE
8
right_labelLayer
10
207.8853515
20
321.3043417
11
207.8853515
21
317.0516073
0
LINE
8
right_labelLayer
10
207.8853515
20
317.0516073
11
206.6533203
21
317.0516073
0
LINE
8
right_labelLayer
10
206.6533203
20
317.0516073
11
206.6533203
21
328.6000448
0
LINE
8
right_labelLayer
10
206.6533203
20
328.6000448
11
207.8853515
21
328.6000448
0
LINE
8
right_labelLayer
10
207.8853515
20
328.6000448
11
207.8853515
21
325.1043417
0
LINE
8
right_labelLayer
10
207.8259765
20
324.0578573
11
207.9001953
21
324.0578573
0
LINE
8
right_labelLayer
10
213.4517578
20
322.358248
11
213.4517578
21
317.0516073
0
ARC
8
right_labelLayer
10
208.7371421
20
322.3336895
40
3.4826417
50
359.6714094
51
8.6877239
0
ARC
8
right_labelLayer
10
210.0279041
20
322.5383947
40
2.1757815
50
8.4931678
51
22.6579936
0
ARC
8
right_labelLayer
10
210.6837021
20
322.8109238
40
1.4656118
50
22.702453
51
42.3419195
0
ARC
8
right_labelLayer
10
210.7574217
20
322.8440865
40
1.3890135
50
43.3790753
51
71.5386263
0
ARC
8
right_labelLayer
10
210.4817646
20
322.0738291
40
2.2069923
50
71.0828161
51
84.3691226
0
ARC
8
right_labelLayer
10
210.3580273
20
321.0217889
40
3.2661578
50
84.0197687
51
90.1510957
0
ARC
8
right_labelLayer
10
210.3228629
20
320.5597113
40
3.7283187
50
89.5919664
51
100.3594969
0
ARC
8
right_labelLayer
10
210.0588622
20
321.9470739
40
2.3161207
50
100.1067641
51
118.0847448
0
ARC
8
right_labelLayer
10
209.7903545
20
322.4739495
40
1.7249122
50
118.455093
51
139.6706329
0
ARC
8
right_labelLayer
10
210.0599218
20
322.289695
40
2.049941
50
140.6208293
51
160.5048986
0
ARC
8
right_labelLayer
10
211.4808132
20
321.7636843
40
3.5649822
50
160.1566887
51
171.5312881
0
ARC
8
right_labelLayer
10
213.7798807
20
321.3994264
40
5.8926656
50
171.3202529
51
178.3406769
0
ARC
8
right_labelLayer
10
215.8369274
20
321.3075281
40
7.9515765
50
178.107974
51
180.0229597
0
ARC
8
right_labelLayer
10
196.8024709
20
325.0911257
40
11.0828885
50
357.8674165
51
0.0683235
0
ARC
8
right_labelLayer
10
200.5673421
20
324.947487
40
7.3152805
50
354.9828892
51
357.8943662
0
ARC
8
right_labelLayer
10
203.053853
20
324.7309729
40
4.8193617
50
351.9713051
51
354.961859
0
ARC
8
right_labelLayer
10
209.9870461
20
322.7524601
40
2.4615053
50
119.8315808
51
147.9725991
0
ARC
8
right_labelLayer
10
210.2851436
20
322.2945159
40
3.0072148
50
116.6658386
51
120.4182568
0
ARC
8
right_labelLayer
10
210.3407634
20
322.1483904
40
3.1627996
50
96.6652465
51
116.3782512
0
ARC
8
right_labelLayer
10
210.4606762
20
321.3210679
40
3.9985151
50
89.8927053
51
96.9959179
0
ARC
8
right_labelLayer
10
210.4990226
20
320.3211439
40
4.9985274
50
80.6863065
51
90.3537199
0
ARC
8
right_labelLayer
10
210.8102633
20
322.1518187
40
3.141634
50
65.6022716
51
80.8843995
0
ARC
8
right_labelLayer
10
211.1840075
20
322.9935717
40
2.2206798
50
46.7400839
51
65.4130802
0
ARC
8
right_labelLayer
10
211.2094089
20
323.0737754
40
2.1451734
50
19.2204238
51
45.7660698
0
ARC
8
right_labelLayer
10
209.9724771
20
322.6152356
40
3.4642062
50
6.4733986
51
19.6467864
0
ARC
8
right_labelLayer
10
208.1242121
20
322.3773525
40
5.3275802
50
359.7945381
51
6.7744142
0
LINE
8
right_labelLayer
10
219.7232422
20
318.0684042
11
219.7232422
21
317.1258261
0
LINE
8
right_labelLayer
10
216.0716797
20
319.389498
11
216.0716797
21
324.2285605
0
LINE
8
right_labelLayer
10
216.0716797
20
324.2285605
11
214.9064453
21
324.2285605
0
LINE
8
right_labelLayer
10
214.9064453
20
324.2285605
11
214.9064453
21
324.8223105
0
LINE
8
right_labelLayer
10
214.9064453
20
324.8223105
11
216.0716797
21
325.3344198
0
LINE
8
right_labelLayer
10
216.0716797
20
325.3344198
11
216.5912109
21
327.0711386
0
LINE
8
right_labelLayer
10
216.5912109
20
327.0711386
11
217.3037109
21
327.0711386
0
LINE
8
right_labelLayer
10
217.3037109
20
327.0711386
11
217.3037109
21
325.1859823
0
LINE
8
right_labelLayer
10
217.3037109
20
325.1859823
11
219.6638672
21
325.1859823
0
LINE
8
right_labelLayer
10
219.6638672
20
325.1859823
11
219.6638672
21
324.2285605
0
LINE
8
right_labelLayer
10
219.6638672
20
324.2285605
11
217.3037109
21
324.2285605
0
LINE
8
right_labelLayer
10
217.3037109
20
324.2285605
11
217.3037109
21
319.4414511
0
ARC
8
right_labelLayer
10
218.6184114
20
321.966115
40
4.0461571
50
269.8803361
51
278.3028182
0
ARC
8
right_labelLayer
10
218.6568819
20
321.6517109
40
3.7295002
50
278.4154933
51
279.0080269
0
ARC
8
right_labelLayer
10
218.2029462
20
324.5516271
40
6.6647264
50
278.9589298
51
280.5103898
0
ARC
8
right_labelLayer
10
218.6356467
20
322.2299231
40
4.3030461
50
280.4846949
51
282.6268719
0
ARC
8
right_labelLayer
10
219.0150113
20
320.5445205
40
2.5754772
50
282.5877444
51
285.5793685
0
ARC
8
right_labelLayer
10
219.2066399
20
319.8400049
40
1.8453854
50
285.7229911
51
286.2567885
0
ARC
8
right_labelLayer
10
219.2052677
20
318.2213696
40
1.2118222
50
287.9887871
51
295.3048477
0
ARC
8
right_labelLayer
10
218.9129836
20
319.1056652
40
2.1431627
50
283.3068788
51
288.1197477
0
ARC
8
right_labelLayer
10
218.6042158
20
320.3936326
40
3.4676203
50
280.0069543
51
283.3734781
0
ARC
8
right_labelLayer
10
218.3973421
20
321.5164229
40
4.6092855
50
279.1864374
51
280.1141274
0
ARC
8
right_labelLayer
10
218.2708255
20
322.2359387
40
5.3397802
50
275.5259809
51
279.2940056
0
ARC
8
right_labelLayer
10
218.4137096
20
320.743478
40
3.8404966
50
270.8932291
51
275.5483531
0
ARC
8
right_labelLayer
10
218.4316471
20
320.0634642
40
3.1602944
50
270.0034237
51
270.7602564
0
ARC
8
right_labelLayer
10
218.3821203
20
320.1206767
40
3.2178909
50
253.7848121
51
270.8852409
0
ARC
8
right_labelLayer
10
218.0008855
20
318.8205184
40
1.8629976
50
190.381759
51
253.8772481
0
ARC
8
right_labelLayer
10
219.9440294
20
319.3459108
40
3.8725952
50
179.3551066
51
192.8477689
0
ARC
8
right_labelLayer
10
219.7845524
20
319.4259338
40
2.48089
50
179.6416287
51
189.7506129
0
ARC
8
right_labelLayer
10
218.9087597
20
319.2697243
40
1.5913031
50
189.5479498
51
205.7873463
0
ARC
8
right_labelLayer
10
218.5488364
20
319.1037525
40
1.1950409
50
206.1294206
51
221.4084149
0
ARC
8
right_labelLayer
10
218.5084821
20
319.0731317
40
1.1445275
50
221.5949023
51
262.3505171
0
ARC
8
right_labelLayer
10
218.6044636
20
319.5667016
40
1.6467442
50
261.3265959
51
270.1912707
0
LINE
8
bottom_outsideCutPath
10
250
20
153
11
250
21
133.86205
0
LINE
8
bottom_outsideCutPath
10
250
20
133.86205
11
245
21
133.86205
0
LINE
8
bottom_outsideCutPath
10
245
20
133.86205
11
245
21
106.13795
0
LINE
8
bottom_outsideCutPath
10
245
20
106.13795
11
250
21
106.13795
0
LINE
8
bottom_outsideCutPath
10
250
20
106.13795
11
250
21
87
0
LINE
8
bottom_outsideCutPath
10
250
20
87
11
284.91385
21
87
0
LINE
8
bottom_outsideCutPath
10
284.91385
20
87
11
284.91385
21
82
0
LINE
8
bottom_outsideCutPath
10
284.91385
20
82
11
312.63795
21
82
0
LINE
8
bottom_outsideCutPath
10
312.63795
20
82
11
312.63795
21
87
0
LINE
8
bottom_outsideCutPath
10
312.63795
20
87
11
340.36205
21
87
0
LINE
8
bottom_outsideCutPath
10
340.36205
20
87
11
340.36205
21
82
0
LINE
8
bottom_outsideCutPath
10
340.36205
20
82
11
368.08615
21
82
0
LINE
8
bottom_outsideCutPath
10
368.08615
20
82
11
368.08615
21
87
0
LINE
8
bottom_outsideCutPath
10
368.08615
20
87
11
395.81025
21
87
0
LINE
8
bottom_outsideCutPath
10
395.81025
20
87
11
403
21
87
0
LINE
8
bottom_outsideCutPath
10
403
20
87
11
403
21
106.13795
0
LINE
8
bottom_outsideCutPath
10
403
20
106.13795
11
408
21
106.13795
0
LINE
8
bottom_outsideCutPath
10
408
20
106.13795
11
408
21
133.86205
0
LINE
8
bottom_outsideCutPath
10
408
20
133.86205
11
403
21
133.86205
0
LINE
8
bottom_outsideCutPath
10
403
20
133.86205
11
403
21
153
0
LINE
8
bottom_outsideCutPath
10
403
20
153
11
368.08615
21
153
0
LINE
8
bottom_outsideCutPath
10
368.08615
20
153
11
368.08615
21
158
0
LINE
8
bottom_outsideCutPath
10
368.08615
20
158
11
340.36205
21
158
0
LINE
8
bottom_outsideCutPath
10
340.36205
20
158
11
340.36205
21
153
0
LINE
8
bottom_outsideCutPath
10
340.36205
20
153
11
312.63795
21
153
0
LINE
8
bottom_outsideCutPath
10
312.63795
20
153
11
312.63795
21
158
0
LINE
8
bottom_outsideCutPath
10
312.63795
20
158
11
284.91385
21
158
0
LINE
8
bottom_outsideCutPath
10
284.91385
20
158
11
284.91385
21
153
0
LINE
8
bottom_outsideCutPath
10
284.91385
20
153
11
257.18975
21
153
0
LINE
8
bottom_outsideCutPath
10
257.18975
20
153
11
250
21
153
0
LINE
8
bottom_labelLayer
10
302.7276984
20
115.3466764
11
302.6386359
21
115.3466764
0
LINE
8
bottom_labelLayer
10
302.6386359
20
115.3466764
11
302.3788703
21
114.300192
0
LINE
8
bottom_labelLayer
10
302.3788703
20
114.300192
11
301.4956672
21
114.300192
0
LINE
8
bottom_labelLayer
10
301.4956672
20
114.300192
11
301.4956672
21
125.8486295
0
LINE
8
bottom_labelLayer
10
301.4956672
20
125.8486295
11
302.7276984
21
125.8486295
0
LINE
8
bottom_labelLayer
10
302.7276984
20
125.8486295
11
302.7276984
21
123.0431608
0
LINE
8
bottom_labelLayer
10
302.6683234
20
121.3509733
11
302.7276984
21
121.3509733
0
ARC
8
bottom_labelLayer
10
305.3177834
20
118.8028284
40
3.7655138
50
74.2393371
51
90.5623897
0
ARC
8
bottom_labelLayer
10
305.5667718
20
119.7162532
40
2.8188119
50
38.5631225
51
74.0670422
0
ARC
8
bottom_labelLayer
10
304.9260135
20
119.2180254
40
3.6304317
50
16.4709246
51
38.4075362
0
ARC
8
bottom_labelLayer
10
303.0800747
20
118.6391932
40
5.5648259
50
5.1338519
51
16.7973366
0
ARC
8
bottom_labelLayer
10
300.7497566
20
118.3916497
40
7.9080379
50
359.8779293
51
5.4093686
0
ARC
8
bottom_labelLayer
10
301.4342116
20
118.3321846
40
7.2236906
50
350.6562786
51
0.3380236
0
ARC
8
bottom_labelLayer
10
303.9525127
20
117.9038488
40
4.6692793
50
335.830591
51
350.8254849
0
ARC
8
bottom_labelLayer
10
305.060261
20
117.4257289
40
3.4629215
50
321.3161562
51
335.5436139
0
ARC
8
bottom_labelLayer
10
305.4837651
20
117.0806382
40
2.9166456
50
274.0640033
51
321.4081016
0
ARC
8
bottom_labelLayer
10
305.28647
20
118.3303573
40
4.1786067
50
269.922576
51
275.5481918
0
ARC
8
bottom_labelLayer
10
305.2600478
20
117.8887158
40
3.737019
50
255.7755315
51
270.318533
0
ARC
8
bottom_labelLayer
10
305.1533985
20
117.4148943
40
3.2515449
50
245.9801477
51
255.5456005
0
ARC
8
bottom_labelLayer
10
304.9468431
20
116.9345503
40
2.7287261
50
215.5850159
51
245.8361713
0
ARC
8
bottom_labelLayer
10
277.0406035
20
123.0214451
40
25.6871042
50
358.1123366
51
0.0484374
0
ARC
8
bottom_labelLayer
10
284.1898606
20
122.7814313
40
18.5338211
50
355.7238686
51
358.1258991
0
ARC
8
bottom_labelLayer
10
287.3248558
20
122.5661679
40
15.3915139
50
355.4716565
51
355.6527998
0
ARC
8
bottom_labelLayer
10
305.0253825
20
119.7487368
40
2.801163
50
95.1835052
51
145.1109072
0
ARC
8
bottom_labelLayer
10
305.2715961
20
118.3603187
40
4.2078523
50
89.8743574
51
96.8145455
0
ARC
8
bottom_labelLayer
10
305.0769052
20
118.0745129
40
3.4621033
50
89.5731327
51
100.7324493
0
ARC
8
bottom_labelLayer
10
304.8206135
20
119.369382
40
2.142184
50
100.4469563
51
119.670061
0
ARC
8
bottom_labelLayer
10
304.5829543
20
119.8137168
40
1.6385186
50
120.1403211
51
142.4248756
0
ARC
8
bottom_labelLayer
10
304.9761438
20
119.5536108
40
2.1090236
50
143.338247
51
161.2559862
0
ARC
8
bottom_labelLayer
10
306.6204026
20
118.9698453
40
3.8537421
50
160.8926525
51
171.2334072
0
ARC
8
bottom_labelLayer
10
309.3652487
20
118.5270372
40
6.6340375
50
171.0667712
51
177.8456987
0
ARC
8
bottom_labelLayer
10
312.2198298
20
118.3818482
40
9.492134
50
177.6176506
51
180.0425352
0
ARC
8
bottom_labelLayer
10
310.8737303
20
118.3429942
40
8.146094
50
179.7762823
51
185.7075373
0
ARC
8
bottom_labelLayer
10
307.6620267
20
118.0120739
40
4.9174123
50
185.5924926
51
194.2050542
0
ARC
8
bottom_labelLayer
10
305.6046235
20
117.4781079
40
2.7919145
50
193.9430451
51
208.0218393
0
ARC
8
bottom_labelLayer
10
304.7722038
20
117.0546353
40
1.8582097
50
208.5537059
51
217.5605392
0
ARC
8
bottom_labelLayer
10
304.7043753
20
117.0264202
40
1.7873425
50
218.1690389
51
253.804726
0
ARC
8
bottom_labelLayer
10
305.0358947
20
118.0485317
40
2.8615516
50
253.1382669
51
266.8482949
0
ARC
8
bottom_labelLayer
10
305.1288532
20
119.1448081
40
3.9614143
50
266.3775809
51
270.0510962
0
ARC
8
bottom_labelLayer
10
305.158667
20
117.6392933
40
2.4560388
50
269.3868886
51
285.8630865
0
ARC
8
bottom_labelLayer
10
305.3411346
20
116.9798318
40
1.771822
50
286.0163047
51
326.849722
0
ARC
8
bottom_labelLayer
10
304.4604518
20
117.5632523
40
2.8282084
50
326.7104911
51
343.6661912
0
ARC
8
bottom_labelLayer
10
302.8118596
20
118.0670104
40
4.551979
50
343.4171235
51
353.6369159
0
ARC
8
bottom_labelLayer
10
300.3218326
20
118.3624701
40
7.0594337
50
353.493476
51
0.2205589
0
ARC
8
bottom_labelLayer
10
300.1023373
20
118.4191085
40
7.2789364
50
359.7680798
51
6.3095334
0
ARC
8
bottom_labelLayer
10
302.8441507
20
118.7337492
40
4.5191666
50
6.1648691
51
16.0396322
0
ARC
8
bottom_labelLayer
10
304.6104082
20
119.2542649
40
2.6778763
50
15.7779242
51
32.0151559
0
ARC
8
bottom_labelLayer
10
305.1612381
20
119.5697105
40
2.0437393
50
32.7034301
51
35.524359
0
ARC
8
bottom_labelLayer
10
305.3626203
20
119.7128492
40
1.7966702
50
35.5408393
51
79.801129
0
ARC
8
bottom_labelLayer
10
305.1213457
20
118.6871436
40
2.8494376
50
78.6781327
51
90.3749573
0
ARC
8
bottom_labelLayer
10
311.4674119
20
118.3318987
40
6.3639468
50
349.1761933
51
0.386264
0
ARC
8
bottom_labelLayer
10
313.6099997
20
117.9047707
40
4.1793022
50
330.2507111
51
349.4116357
0
ARC
8
bottom_labelLayer
10
314.2693781
20
117.5620534
40
3.4368962
50
318.143985
51
329.756608
0
ARC
8
bottom_labelLayer
10
314.3883936
20
117.4666738
40
3.2846182
50
278.8959079
51
317.997923
0
ARC
8
bottom_labelLayer
10
314.0817522
20
118.9358179
40
4.7841088
50
269.7502867
51
279.8033232
0
ARC
8
bottom_labelLayer
10
314.0320204
20
118.1080445
40
3.9563954
50
253.5436923
51
270.4182558
0
ARC
8
bottom_labelLayer
10
313.9003216
20
117.5985997
40
3.4305585
50
238.8115681
51
253.2428327
0
ARC
8
bottom_labelLayer
10
313.8578163
20
117.5131204
40
3.3354313
50
207.7947061
51
238.6757962
0
ARC
8
bottom_labelLayer
10
314.4677242
20
117.8866584
40
4.0494148
50
205.6560055
51
208.4461141
0
ARC
8
bottom_labelLayer
10
314.9375027
20
118.0823998
40
4.5577071
50
188.9102463
51
205.3171422
0
ARC
8
bottom_labelLayer
10
316.5206933
20
118.3505409
40
6.1633551
50
179.774469
51
189.0932837
0
ARC
8
bottom_labelLayer
10
316.7542358
20
118.4181294
40
6.3969965
50
169.2442973
51
180.3880777
0
ARC
8
bottom_labelLayer
10
314.5818692
20
118.8475271
40
4.1826918
50
150.7111587
51
169.4695376
0
ARC
8
bottom_labelLayer
10
313.8883718
20
119.2036646
40
3.4037416
50
138.1759383
51
150.2287627
0
ARC
8
bottom_labelLayer
10
313.7730217
20
119.2921815
40
3.2587744
50
99.1759396
51
137.9832706
0
ARC
8
bottom_labelLayer
10
314.0905265
20
117.7979659
40
4.7850908
50
89.7326457
51
100.0759793
0
ARC
8
bottom_labelLayer
10
314.1539843
20
118.4432748
40
4.1399341
50
73.5222681
51
90.5692336
0
ARC
8
bottom_labelLayer
10
314.3967663
20
119.3253651
40
3.2252546
50
41.1445709
51
73.2133824
0
ARC
8
bottom_labelLayer
10
313.9333134
20
118.9270343
40
3.836348
50
13.501435
51
41.0703398
0
ARC
8
bottom_labelLayer
10
312.1427664
20
118.4584725
40
5.6869308
50
1.1277212
51
13.8799972
0
ARC
8
bottom_labelLayer
10
310.6006475
20
118.3758236
40
7.2305667
50
359.9919004
51
1.5420146
0
ARC
8
bottom_labelLayer
10
317.8728494
20
118.342785
40
6.2389832
50
179.7059754
51
187.9160893
0
ARC
8
bottom_labelLayer
10
315.5845864
20
118.0140776
40
3.9272689
50
187.763934
51
200.0976875
0
ARC
8
bottom_labelLayer
10
314.3239887
20
117.5521928
40
2.5847178
50
200.084588
51
216.9131565
0
ARC
8
bottom_labelLayer
10
313.8636632
20
117.2234991
40
2.0192976
50
217.3009559
51
261.7099067
0
ARC
8
bottom_labelLayer
10
314.0773607
20
118.2432348
40
3.0598682
50
260.5032986
51
270.2476999
0
ARC
8
bottom_labelLayer
10
314.11815
20
118.0449552
40
2.8616928
50
269.448177
51
284.7255795
0
ARC
8
bottom_labelLayer
10
314.344694
20
117.204779
40
1.9915353
50
284.5662293
51
322.6333796
0
ARC
8
bottom_labelLayer
10
313.8150246
20
117.5874411
40
2.6447992
50
323.0089295
51
342.6390572
0
ARC
8
bottom_labelLayer
10
312.3000542
20
118.0825771
40
4.2385471
50
342.3615744
51
353.7537611
0
ARC
8
bottom_labelLayer
10
310.0649542
20
118.3519891
40
6.4897375
50
353.5363095
51
0.201403
0
ARC
8
bottom_labelLayer
10
310.4074386
20
118.4061783
40
6.147293
50
359.7075509
51
7.8972852
0
ARC
8
bottom_labelLayer
10
312.6587374
20
118.728925
40
3.8730148
50
7.7439833
51
20.0690172
0
ARC
8
bottom_labelLayer
10
313.9132538
20
119.1892845
40
2.5367002
50
20.0257232
51
37.4350319
0
ARC
8
bottom_labelLayer
10
314.3294999
20
119.4846458
40
2.0267285
50
37.9577614
51
80.4006289
0
ARC
8
bottom_labelLayer
10
314.0929643
20
118.4292485
40
3.1073192
50
79.3453488
51
90.3175019
0
ARC
8
bottom_labelLayer
10
314.0491648
20
118.6045486
40
2.932092
50
89.4805842
51
103.8804895
0
ARC
8
bottom_labelLayer
10
313.8027946
20
119.5427298
40
1.9622544
50
103.4685342
51
142.311876
0
ARC
8
bottom_labelLayer
10
314.2817619
20
119.2058868
40
2.547354
50
142.9025826
51
162.3749487
0
ARC
8
bottom_labelLayer
10
315.7909695
20
118.7029466
40
4.1380608
50
162.0653003
51
173.1675038
0
ARC
8
bottom_labelLayer
10
318.1442861
20
118.402796
40
6.5103978
50
173.0086367
51
180.2463712
0
LINE
8
bottom_labelLayer
10
323.7316047
20
115.3169889
11
323.7316047
21
114.3744108
0
LINE
8
bottom_labelLayer
10
320.0800422
20
116.6380827
11
320.0800422
21
121.4771452
0
LINE
8
bottom_labelLayer
10
320.0800422
20
121.4771452
11
318.9148078
21
121.4771452
0
LINE
8
bottom_labelLayer
10
318.9148078
20
121.4771452
11
318.9148078
21
122.0708952
0
LINE
8
bottom_labelLayer
10
318.9148078
20
122.0708952
11
320.0800422
21
122.5830045
0
LINE
8
bottom_labelLayer
10
320.0800422
20
122.5830045
11
320.5995734
21
124.3197233
0
LINE
8
bottom_labelLayer
10
320.5995734
20
124.3197233
11
321.3120734
21
124.3197233
0
LINE
8
bottom_labelLayer
10
321.3120734
20
124.3197233
11
321.3120734
21
122.434567
0
LINE
8
bottom_labelLayer
10
321.3120734
20
122.434567
11
323.6722297
21
122.434567
0
LINE
8
bottom_labelLayer
10
323.6722297
20
122.434567
11
323.6722297
21
121.4771452
0
LINE
8
bottom_labelLayer
10
323.6722297
20
121.4771452
11
321.3120734
21
121.4771452
0
LINE
8
bottom_labelLayer
10
321.3120734
20
121.4771452
11
321.3120734
21
116.6900358
0
ARC
8
bottom_labelLayer
10
322.6267739
20
119.2146997
40
4.0461571
50
269.8803361
51
278.3028182
0
ARC
8
bottom_labelLayer
10
322.6652444
20
118.9002956
40
3.7295002
50
278.4154933
51
279.0080269
0
ARC
8
bottom_labelLayer
10
322.2113087
20
121.8002118
40
6.6647264
50
278.9589298
51
280.5103898
0
ARC
8
bottom_labelLayer
10
322.6440093
20
119.4785078
40
4.3030461
50
280.4846949
51
282.6268719
0
ARC
8
bottom_labelLayer
10
323.0233738
20
117.7931052
40
2.5754772
50
282.5877444
51
285.5793685
0
ARC
8
bottom_labelLayer
10
323.2150024
20
117.0885896
40
1.8453854
50
285.7229911
51
286.2567885
0
ARC
8
bottom_labelLayer
10
323.2136302
20
115.4699543
40
1.2118222
50
287.9887871
51
295.3048477
0
ARC
8
bottom_labelLayer
10
322.9213461
20
116.3542499
40
2.1431627
50
283.3068788
51
288.1197477
0
ARC
8
bottom_labelLayer
10
322.6125784
20
117.6422173
40
3.4676203
50
280.0069543
51
283.3734781
0
ARC
8
bottom_labelLayer
10
322.4057046
20
118.7650076
40
4.6092855
50
279.1864374
51
280.1141274
0
ARC
8
bottom_labelLayer
10
322.2791881
20
119.4845234
40
5.3397802
50
275.5259809
51
279.2940056
0
ARC
8
bottom_labelLayer
10
322.4220721
20
117.9920627
40
3.8404966
50
270.8932291
51
275.5483531
0
ARC
8
bottom_labelLayer
10
322.4400096
20
117.3120489
40
3.1602944
50
270.0034237
51
270.7602564
0
ARC
8
bottom_labelLayer
10
322.3904828
20
117.3692614
40
3.2178909
50
253.7848121
51
270.8852409
0
ARC
8
bottom_labelLayer
10
322.009248
20
116.0691031
40
1.8629976
50
190.381759
51
253.8772481
0
ARC
8
bottom_labelLayer
10
323.9523919
20
116.5944955
40
3.8725952
50
179.3551066
51
192.8477689
0
ARC
8
bottom_labelLayer
10
323.7929149
20
116.6745185
40
2.48089
50
179.6416287
51
189.7506129
0
ARC
8
bottom_labelLayer
10
322.9171222
20
116.518309
40
1.5913031
50
189.5479498
51
205.7873463
0
ARC
8
bottom_labelLayer
10
322.5571989
20
116.3523372
40
1.1950409
50
206.1294206
51
221.4084149
0
ARC
8
bottom_labelLayer
10
322.5168446
20
116.3217164
40
1.1445275
50
221.5949023
51
262.3505171
0
ARC
8
bottom_labelLayer
10
322.6128261
20
116.8152863
40
1.6467442
50
261.3265959
51
270.1912707
0
LINE
8
bottom_labelLayer
10
329.0976203
20
115.3169889
11
329.0976203
21
114.3744108
0
LINE
8
bottom_labelLayer
10
325.4460578
20
116.6380827
11
325.4460578
21
121.4771452
0
LINE
8
bottom_labelLayer
10
325.4460578
20
121.4771452
11
324.2808234
21
121.4771452
0
LINE
8
bottom_labelLayer
10
324.2808234
20
121.4771452
11
324.2808234
21
122.0708952
0
LINE
8
bottom_labelLayer
10
324.2808234
20
122.0708952
11
325.4460578
21
122.5830045
0
LINE
8
bottom_labelLayer
10
325.4460578
20
122.5830045
11
325.9655891
21
124.3197233
0
LINE
8
bottom_labelLayer
10
325.9655891
20
124.3197233
11
326.6780891
21
124.3197233
0
LINE
8
bottom_labelLayer
10
326.6780891
20
124.3197233
11
326.6780891
21
122.434567
0
LINE
8
bottom_labelLayer
10
326.6780891
20
122.434567
11
329.0382453
21
122.434567
0
LINE
8
bottom_labelLayer
10
329.0382453
20
122.434567
11
329.0382453
21
121.4771452
0
LINE
8
bottom_labelLayer
10
329.0382453
20
121.4771452
11
326.6780891
21
121.4771452
0
LINE
8
bottom_labelLayer
10
326.6780891
20
121.4771452
11
326.6780891
21
116.6900358
0
ARC
8
bottom_labelLayer
10
327.9927896
20
119.2146997
40
4.0461571
50
269.8803361
51
278.3028182
0
ARC
8
bottom_labelLayer
10
328.03126
20
118.9002956
40
3.7295002
50
278.4154933
51
279.0080269
0
ARC
8
bottom_labelLayer
10
327.5773243
20
121.8002118
40
6.6647264
50
278.9589298
51
280.5103898
0
ARC
8
bottom_labelLayer
10
328.0100249
20
119.4785078
40
4.3030461
50
280.4846949
51
282.6268719
0
ARC
8
bottom_labelLayer
10
328.3893894
20
117.7931052
40
2.5754772
50
282.5877444
51
285.5793685
0
ARC
8
bottom_labelLayer
10
328.581018
20
117.0885896
40
1.8453854
50
285.7229911
51
286.2567885
0
ARC
8
bottom_labelLayer
10
328.5796459
20
115.4699543
40
1.2118222
50
287.9887871
51
295.3048477
0
ARC
8
bottom_labelLayer
10
328.2873617
20
116.3542499
40
2.1431627
50
283.3068788
51
288.1197477
0
ARC
8
bottom_labelLayer
10
327.978594
20
117.6422173
40
3.4676203
50
280.0069543
51
283.3734781
0
ARC
8
bottom_labelLayer
10
327.7717203
20
118.7650076
40
4.6092855
50
279.1864374
51
280.1141274
0
ARC
8
bottom_labelLayer
10
327.6452037
20
119.4845234
40
5.3397802
50
275.5259809
51
279.2940056
0
ARC
8
bottom_labelLayer
10
327.7880878
20
117.9920627
40
3.8404966
50
270.8932291
51
275.5483531
0
ARC
8
bottom_labelLayer
10
327.8060252
20
117.3120489
40
3.1602944
50
270.0034237
51
270.7602564
0
ARC
8
bottom_labelLayer
10
327.7564984
20
117.3692614
40
3.2178909
50
253.7848121
51
270.8852409
0
ARC
8
bottom_labelLayer
10
327.3752637
20
116.0691031
40
1.8629976
50
190.381759
51
253.8772481
0
ARC
8
bottom_labelLayer
10
329.3184075
20
116.5944955
40
3.8725952
50
179.3551066
51
192.8477689
0
ARC
8
bottom_labelLayer
10
329.1589305
20
116.6745185
40
2.48089
50
179.6416287
51
189.7506129
0
ARC
8
bottom_labelLayer
10
328.2831378
20
116.518309
40
1.5913031
50
189.5479498
51
205.7873463
0
ARC
8
bottom_labelLayer
10
327.9232146
20
116.3523372
40
1.1950409
50
206.1294206
51
221.4084149
0
ARC
8
bottom_labelLayer
10
327.8828603
20
116.3217164
40
1.1445275
50
221.5949023
51
262.3505171
0
ARC
8
bottom_labelLayer
10
327.9788417
20
116.8152863
40
1.6467442
50
261.3265959
51
270.1912707
0
ARC
8
bottom_labelLayer
10
331.3803025
20
118.3318987
40
6.3639468
50
349.1761933
51
0.386264
0
ARC
8
bottom_labelLayer
10
333.5228904
20
117.9047707
40
4.1793022
50
330.2507111
51
349.4116357
0
ARC
8
bottom_labelLayer
10
334.1822687
20
117.5620534
40
3.4368962
50
318.143985
51
329.756608
0
ARC
8
bottom_labelLayer
10
334.3012842
20
117.4666738
40
3.2846182
50
278.8959079
51
317.997923
0
ARC
8
bottom_labelLayer
10
333.9946428
20
118.9358179
40
4.7841088
50
269.7502867
51
279.8033232
0
ARC
8
bottom_labelLayer
10
333.944911
20
118.1080445
40
3.9563954
50
253.5436923
51
270.4182558
0
ARC
8
bottom_labelLayer
10
333.8132122
20
117.5985997
40
3.4305585
50
238.8115681
51
253.2428327
0
ARC
8
bottom_labelLayer
10
333.7707069
20
117.5131204
40
3.3354313
50
207.7947061
51
238.6757962
0
ARC
8
bottom_labelLayer
10
334.3806148
20
117.8866584
40
4.0494148
50
205.6560055
51
208.4461141
0
ARC
8
bottom_labelLayer
10
334.8503933
20
118.0823998
40
4.5577071
50
188.9102463
51
205.3171422
0
ARC
8
bottom_labelLayer
10
336.4335839
20
118.3505409
40
6.1633551
50
179.774469
51
189.0932837
0
ARC
8
bottom_labelLayer
10
336.6671264
20
118.4181294
40
6.3969965
50
169.2442973
51
180.3880777
0
ARC
8
bottom_labelLayer
10
334.4947598
20
118.8475271
40
4.1826918
50
150.7111587
51
169.4695376
0
ARC
8
bottom_labelLayer
10
333.8012625
20
119.2036646
40
3.4037416
50
138.1759383
51
150.2287627
0
ARC
8
bottom_labelLayer
10
333.6859123
20
119.2921815
40
3.2587744
50
99.1759396
51
137.9832706
0
ARC
8
bottom_labelLayer
10
334.0034171
20
117.7979659
40
4.7850908
50
89.7326457
51
100.0759793
0
ARC
8
bottom_labelLayer
10
334.0668749
20
118.4432748
40
4.1399341
50
73.5222681
51
90.5692336
0
ARC
8
bottom_labelLayer
10
334.3096569
20
119.3253651
40
3.2252546
50
41.1445709
51
73.2133824
0
ARC
8
bottom_labelLayer
10
333.8462041
20
118.9270343
40
3.836348
50
13.501435
51
41.0703398
0
ARC
8
bottom_labelLayer
10
332.055657
20
118.4584725
40
5.6869308
50
1.1277212
51
13.8799972
0
ARC
8
bottom_labelLayer
10
330.5135381
20
118.3758236
40
7.2305667
50
359.9919004
51
1.5420146
0
ARC
8
bottom_labelLayer
10
337.7857401
20
118.342785
40
6.2389832
50
179.7059754
51
187.9160893
0
ARC
8
bottom_labelLayer
10
335.497477
20
118.0140776
40
3.9272689
50
187.763934
51
200.0976875
0
ARC
8
bottom_labelLayer
10
334.2368793
20
117.5521928
40
2.5847178
50
200.084588
51
216.9131565
0
ARC
8
bottom_labelLayer
10
333.7765538
20
117.2234991
40
2.0192976
50
217.3009559
51
261.7099067
0
ARC
8
bottom_labelLayer
10
333.9902514
20
118.2432348
40
3.0598682
50
260.5032986
51
270.2476999
0
ARC
8
bottom_labelLayer
10
334.0310406
20
118.0449552
40
2.8616928
50
269.448177
51
284.7255795
0
ARC
8
bottom_labelLayer
10
334.2575846
20
117.204779
40
1.9915353
50
284.5662293
51
322.6333796
0
ARC
8
bottom_labelLayer
10
333.7279152
20
117.5874411
40
2.6447992
50
323.0089295
51
342.6390572
0
ARC
8
bottom_labelLayer
10
332.2129448
20
118.0825771
40
4.2385471
50
342.3615744
51
353.7537611
0
ARC
8
bottom_labelLayer
10
329.9778448
20
118.3519891
40
6.4897375
50
353.5363095
51
0.201403
0
ARC
8
bottom_labelLayer
10
330.3203292
20
118.4061783
40
6.147293
50
359.7075509
51
7.8972852
0
ARC
8
bottom_labelLayer
10
332.571628
20
118.728925
40
3.8730148
50
7.7439833
51
20.0690172
0
ARC
8
bottom_labelLayer
10
333.8261444
20
119.1892845
40
2.5367002
50
20.0257232
51
37.4350319
0
ARC
8
bottom_labelLayer
10
334.2423905
20
119.4846458
40
2.0267285
50
37.9577614
51
80.4006289
0
ARC
8
bottom_labelLayer
10
334.0058549
20
118.4292485
40
3.1073192
50
79.3453488
51
90.3175019
0
ARC
8
bottom_labelLayer
10
333.9620554
20
118.6045486
40
2.932092
50
89.4805842
51
103.8804895
0
ARC
8
bottom_labelLayer
10
333.7156852
20
119.5427298
40
1.9622544
50
103.4685342
51
142.311876
0
ARC
8
bottom_labelLayer
10
334.1946526
20
119.2058868
40
2.547354
50
142.9025826
51
162.3749487
0
ARC
8
bottom_labelLayer
10
335.7038601
20
118.7029466
40
4.1380608
50
162.0653003
51
173.1675038
0
ARC
8
bottom_labelLayer
10
338.0571767
20
118.402796
40
6.5103978
50
173.0086367
51
180.2463712
0
LINE
8
bottom_labelLayer
10
351.5042609
20
114.300192
11
350.2722297
21
114.300192
0
LINE
8
bottom_labelLayer
10
350.2722297
20
114.300192
11
350.2722297
21
119.5919889
0
LINE
8
bottom_labelLayer
10
346.3163703
20
118.8423795
11
346.3163703
21
114.300192
0
LINE
8
bottom_labelLayer
10
346.3163703
20
114.300192
11
345.0843391
21
114.300192
0
LINE
8
bottom_labelLayer
10
345.0843391
20
114.300192
11
345.0843391
21
119.5919889
0
LINE
8
bottom_labelLayer
10
341.1359016
20
118.5677702
11
341.1359016
21
114.300192
0
LINE
8
bottom_labelLayer
10
341.1359016
20
114.300192
11
339.9038703
21
114.300192
0
LINE
8
bottom_labelLayer
10
339.9038703
20
114.300192
11
339.9038703
21
122.434567
0
LINE
8
bottom_labelLayer
10
339.9038703
20
122.434567
11
340.9058234
21
122.434567
0
LINE
8
bottom_labelLayer
10
340.9058234
20
122.434567
11
341.1062141
21
121.3212858
0
LINE
8
bottom_labelLayer
10
341.1062141
20
121.3212858
11
341.1655891
21
121.3212858
0
LINE
8
bottom_labelLayer
10
346.0640266
20
121.2025358
11
346.1234016
21
121.2025358
0
LINE
8
bottom_labelLayer
10
351.5042609
20
119.6068327
11
351.5042609
21
114.300192
0
ARC
8
bottom_labelLayer
10
346.6376747
20
119.6113461
40
3.6346065
50
359.694852
51
8.1471302
0
ARC
8
bottom_labelLayer
10
347.9764142
20
119.809462
40
2.2813112
50
7.9864878
51
20.7949232
0
ARC
8
bottom_labelLayer
10
348.7164408
20
120.0929382
40
1.488853
50
20.7070902
51
40.0217583
0
ARC
8
bottom_labelLayer
10
348.8787816
20
120.1991549
40
1.2964316
50
41.0408196
51
73.1792652
0
ARC
8
bottom_labelLayer
10
348.6438728
20
119.4886694
40
2.0445871
50
72.6395548
51
86.2567916
0
ARC
8
bottom_labelLayer
10
348.568619
20
118.6766468
40
2.8598755
50
85.8144189
51
90.0685284
0
ARC
8
bottom_labelLayer
10
348.5409715
20
118.3664044
40
3.1702083
50
89.5621374
51
101.2961803
0
ARC
8
bottom_labelLayer
10
348.3022021
20
119.5094748
40
2.0025377
50
101.003243
51
121.7840294
0
ARC
8
bottom_labelLayer
10
348.1206769
20
119.8335492
40
1.6315312
50
122.3597084
51
140.2883806
0
ARC
8
bottom_labelLayer
10
348.4472553
20
119.5940911
40
2.0359003
50
140.9765086
51
161.1699645
0
ARC
8
bottom_labelLayer
10
349.6775739
20
119.1562487
40
3.3417361
50
160.8731879
51
172.5272334
0
ARC
8
bottom_labelLayer
10
351.7333809
20
118.872328
40
5.4170264
50
172.3776591
51
180.1829685
0
ARC
8
bottom_labelLayer
10
353.2051217
20
118.8422783
40
6.8887515
50
179.8939466
51
179.9991583
0
ARC
8
bottom_labelLayer
10
341.4497841
20
119.6113461
40
3.6346065
50
359.694852
51
8.1471302
0
ARC
8
bottom_labelLayer
10
342.7885236
20
119.809462
40
2.2813112
50
7.9864878
51
20.7949232
0
ARC
8
bottom_labelLayer
10
343.5285502
20
120.0929382
40
1.488853
50
20.7070902
51
40.0217583
0
ARC
8
bottom_labelLayer
10
343.6942666
20
120.2014876
40
1.2923539
50
41.0610785
51
72.8993595
0
ARC
8
bottom_labelLayer
10
343.4549081
20
119.4888903
40
2.0439213
50
72.3601108
51
85.9561789
0
ARC
8
bottom_labelLayer
10
343.3738839
20
118.6515265
40
2.8849963
50
85.5237827
51
90.0793985
0
ARC
8
bottom_labelLayer
10
343.346244
20
118.4766032
40
3.0600083
50
89.5573229
51
101.4832288
0
ARC
8
bottom_labelLayer
10
343.1113778
20
119.577001
40
1.9349116
50
101.1546418
51
123.0655732
0
ARC
8
bottom_labelLayer
10
342.9517263
20
119.855106
40
1.6148407
50
123.7020488
51
142.3022434
0
ARC
8
bottom_labelLayer
10
343.325696
20
119.6013987
40
2.0660733
50
143.0769732
51
161.391397
0
ARC
8
bottom_labelLayer
10
344.833153
20
119.0690003
40
3.6646861
50
161.0234667
51
171.4469052
0
ARC
8
bottom_labelLayer
10
347.3286935
20
118.678082
40
6.1906313
50
171.3041962
51
178.350159
0
ARC
8
bottom_labelLayer
10
349.7140379
20
118.571555
40
8.5781373
50
178.0976417
51
180.0252803
0
ARC
8
bottom_labelLayer
10
343.252816
20
120.0938937
40
2.4213649
50
117.1209513
51
149.5423783
0
ARC
8
bottom_labelLayer
10
343.4999376
20
119.6546679
40
2.9250179
50
93.8343281
51
117.5072236
0
ARC
8
bottom_labelLayer
10
343.5681949
20
119.0500206
40
3.5329845
50
89.9662415
51
94.2830807
0
ARC
8
bottom_labelLayer
10
343.609088
20
118.5495144
40
4.0336769
50
77.5572203
51
90.5512996
0
ARC
8
bottom_labelLayer
10
343.9833686
20
120.1593645
40
2.3810681
50
52.7027117
51
78.0053717
0
ARC
8
bottom_labelLayer
10
344.1167177
20
120.4074653
40
2.1033661
50
22.2097976
51
51.4970503
0
ARC
8
bottom_labelLayer
10
348.355279
20
119.923442
40
2.5724226
50
119.4041645
51
150.1828844
0
ARC
8
bottom_labelLayer
10
348.6403185
20
119.4900465
40
3.0901367
50
118.2581711
51
120.0630939
0
ARC
8
bottom_labelLayer
10
348.6397627
20
119.4578754
40
3.1182503
50
95.8635287
51
117.9693099
0
ARC
8
bottom_labelLayer
10
348.7452972
20
118.6947642
40
3.8882442
50
89.9197181
51
96.2617388
0
ARC
8
bottom_labelLayer
10
348.7791762
20
118.3004873
40
4.2826116
50
79.9361093
51
90.3803709
0
ARC
8
bottom_labelLayer
10
349.0645326
20
119.8459507
40
2.7110843
50
62.9723112
51
80.1665087
0
ARC
8
bottom_labelLayer
10
349.3628373
20
120.4579547
40
2.0304011
50
44.2289748
51
62.6229177
0
ARC
8
bottom_labelLayer
10
349.2741134
20
120.4187571
40
2.1215877
50
19.5612075
51
43.3161285
0
ARC
8
bottom_labelLayer
10
347.9855768
20
119.9347818
40
3.4978837
50
7.504194
51
19.9645339
0
ARC
8
bottom_labelLayer
10
345.8534127
20
119.6353631
40
5.6509201
50
359.7107231
51
7.6907174
0
ENDSEC
0
EOF