0
SECTION
2
HEADER
9
$INSUNITS
70
4
0
ENDSEC
0
SECTION
2
TABLES
0
TABLE
2
LTYPE
0
LTYPE
72
65
70
64
2
CONTINUOUS
3
______
73
0
40
0
0
ENDTAB
0
TABLE
2
LAYER
0
ENDTAB
0
ENDSEC
0
SECTION
2
ENTITIES
0
LINE
8
front_outsideCutPath
10
0
20
203
11
0
21
3
0
LINE
8
front_outsideCutPath
10
0
20
3
11
165
21
3
0
LINE
8
front_outsideCutPath
10
165
20
3
11
165
21
203
0
LINE
8
front_outsideCutPath
10
165
20
203
11
0
21
203
0
LINE
8
front_labelLayer
10
55.1638183
20
108.1968826
11
55.1638183
21
106.1182693
0
LINE
8
front_labelLayer
10
55.1638183
20
106.1182693
11
50.6682128
21
106.1182693
0
LINE
8
front_labelLayer
10
50.6682128
20
106.1182693
11
50.6682128
21
90.5367263
0
LINE
8
front_labelLayer
10
50.6682128
20
90.5367263
11
47.9934082
21
90.5367263
0
LINE
8
front_labelLayer
10
47.9934082
20
90.5367263
11
47.9934082
21
106.1182693
0
LINE
8
front_labelLayer
10
47.9934082
20
106.1182693
11
44.835205
21
106.1182693
0
LINE
8
front_labelLayer
10
44.835205
20
106.1182693
11
44.835205
21
107.3267654
0
LINE
8
front_labelLayer
10
44.835205
20
107.3267654
11
47.9934082
21
108.2935622
0
LINE
8
front_labelLayer
10
47.9934082
20
108.2935622
11
47.9934082
21
109.2764724
0
LINE
8
front_labelLayer
10
56.9685058
20
115.2222732
11
56.2756347
21
113.0792068
0
LINE
8
front_labelLayer
10
50.6682128
20
109.3409255
11
50.6682128
21
108.1968826
0
LINE
8
front_labelLayer
10
50.6682128
20
108.1968826
11
55.1638183
21
108.1968826
0
ARC
8
front_labelLayer
10
58.8334658
20
109.4010952
40
10.840774
50
167.5776075
51
180.6586725
0
ARC
8
front_labelLayer
10
53.7357747
20
110.5895794
40
5.6071312
50
141.7433898
51
168.232207
0
ARC
8
front_labelLayer
10
52.9057674
20
111.0227811
40
4.6903595
50
98.2551512
51
139.6203378
0
ARC
8
front_labelLayer
10
53.6345261
20
107.6561957
40
8.1301774
50
89.6696888
51
99.9314343
0
ARC
8
front_labelLayer
10
53.6365603
20
107.1728811
40
8.6134736
50
81.5640849
51
89.7017538
0
ARC
8
front_labelLayer
10
53.0309983
20
102.9481716
40
12.8813287
50
75.9740073
51
81.65646
0
ARC
8
front_labelLayer
10
51.9918942
20
98.638194
40
17.3146858
50
73.296357
51
76.0946267
0
ARC
8
front_labelLayer
10
52.2535192
20
100.728764
40
12.9888741
50
71.9613474
51
76.591806
0
ARC
8
front_labelLayer
10
53.2612401
20
105.0035983
40
8.5968898
50
76.5183251
51
83.021701
0
ARC
8
front_labelLayer
10
53.6122413
20
107.8262982
40
5.7524579
50
83.0761002
51
89.7926744
0
ARC
8
front_labelLayer
10
53.6006917
20
109.9715979
40
3.6072658
50
89.4859267
51
103.4197488
0
ARC
8
front_labelLayer
10
53.2754711
20
111.2210618
40
2.3165892
50
102.7677481
51
144.3380201
0
ARC
8
front_labelLayer
10
53.9306635
20
110.7995072
40
3.0949329
50
145.068886
51
162.1801513
0
ARC
8
front_labelLayer
10
56.1770582
20
110.043707
40
5.4649413
50
161.8437487
51
171.7846893
0
ARC
8
front_labelLayer
10
59.8409725
20
109.4933976
40
9.1699165
50
171.6527709
51
178.4383547
0
ARC
8
front_labelLayer
10
63.296634
20
109.3460386
40
12.6284221
50
178.1973052
51
180.023198
0
LINE
8
front_labelLayer
10
68.553955
20
108.3257888
11
68.1833496
21
105.8443435
0
LINE
8
front_labelLayer
10
61.0612793
20
100.0113357
11
61.0612793
21
90.5367263
0
LINE
8
front_labelLayer
10
61.0612793
20
90.5367263
11
58.3864746
21
90.5367263
0
LINE
8
front_labelLayer
10
58.3864746
20
90.5367263
11
58.3864746
21
108.1968826
0
LINE
8
front_labelLayer
10
58.3864746
20
108.1968826
11
60.5939941
21
108.1968826
0
LINE
8
front_labelLayer
10
60.5939941
20
108.1968826
11
60.9001464
21
104.9258865
0
LINE
8
front_labelLayer
10
60.9001464
20
104.9258865
11
61.0290527
21
104.9258865
0
ARC
8
front_labelLayer
10
66.4705722
20
96.2396154
40
12.2795635
50
84.9922831
51
90.1281129
0
ARC
8
front_labelLayer
10
66.7654703
20
99.5435955
40
8.9624548
50
78.4891795
51
85.0266025
0
ARC
8
front_labelLayer
10
65.6208447
20
94.3375336
40
11.7886854
50
77.4454013
51
81.6360185
0
ARC
8
front_labelLayer
10
66.1344786
20
97.8779349
40
8.2112291
50
81.5884313
51
87.1916695
0
ARC
8
front_labelLayer
10
66.246031
20
99.812235
40
6.2738087
50
87.3437036
51
89.9659834
0
ARC
8
front_labelLayer
10
66.2201129
20
101.4514927
40
4.6346448
50
89.6335375
51
137.0880787
0
ARC
8
front_labelLayer
10
67.3574884
20
100.1724685
40
6.3405922
50
135.6208644
51
138.8377152
0
ARC
8
front_labelLayer
10
67.1908707
20
100.3351103
40
6.1081176
50
138.9575742
51
174.5422266
0
ARC
8
front_labelLayer
10
69.1801634
20
100.0238428
40
8.1188939
50
173.6907539
51
180.0882642
0
ARC
8
front_labelLayer
10
68.8989032
20
100.4920473
40
9.0329108
50
139.4139336
51
150.6032808
0
ARC
8
front_labelLayer
10
67.2792982
20
101.8798767
40
6.9000276
50
124.2321568
51
139.4160971
0
ARC
8
front_labelLayer
10
66.4133036
20
103.1870899
40
5.3321417
50
89.6796621
51
124.4405689
0
ARC
8
front_labelLayer
10
73.2841889
20
99.2897737
40
13.8164669
50
349.176196
51
0.3862639
0
ARC
8
front_labelLayer
10
77.9358715
20
98.3624529
40
9.0734763
50
330.2507036
51
349.4116469
0
ARC
8
front_labelLayer
10
79.3674165
20
97.6183928
40
7.4616725
50
318.1439791
51
329.7566178
0
ARC
8
front_labelLayer
10
79.6257955
20
97.4113282
40
7.1310826
50
278.8959182
51
317.9979129
0
ARC
8
front_labelLayer
10
78.9600627
20
100.6009081
40
10.3865461
50
269.7502862
51
279.8033285
0
ARC
8
front_labelLayer
10
78.852093
20
98.8037755
40
8.5895436
50
253.5436896
51
270.4182508
0
ARC
8
front_labelLayer
10
78.566163
20
97.6977306
40
7.44791
50
238.8115476
51
253.2428374
0
ARC
8
front_labelLayer
10
78.4738861
20
97.5121626
40
7.2413967
50
207.794704
51
238.6757951
0
ARC
8
front_labelLayer
10
79.7982723
20
98.3232633
40
8.7917691
50
205.6560786
51
208.4460996
0
ARC
8
front_labelLayer
10
80.8179387
20
98.7480976
40
9.8950185
50
188.9102438
51
205.3171455
0
ARC
8
front_labelLayer
10
84.2551484
20
99.3302482
40
13.3809844
50
179.7744748
51
189.0932782
0
ARC
8
front_labelLayer
10
84.7621653
20
99.4769851
40
13.8882164
50
169.2442972
51
180.3880775
0
ARC
8
front_labelLayer
10
80.0458409
20
100.4092304
40
9.0808419
50
150.7111545
51
169.4695376
0
ARC
8
front_labelLayer
10
78.5402387
20
101.1824112
40
7.3897212
50
138.1759458
51
150.228739
0
ARC
8
front_labelLayer
10
78.2897919
20
101.3745995
40
7.0749694
50
99.1759361
51
137.9832746
0
ARC
8
front_labelLayer
10
78.9791091
20
98.1306017
40
10.3886595
50
89.7326279
51
100.0759858
0
ARC
8
front_labelLayer
10
79.1168817
20
99.531573
40
8.9880188
50
73.5222714
51
90.5692292
0
ARC
8
front_labelLayer
10
79.6439762
20
101.4466442
40
7.0021946
50
41.144562
51
73.213387
0
ARC
8
front_labelLayer
10
78.6377941
20
100.5818439
40
8.328914
50
13.5014381
51
41.0703413
0
ARC
8
front_labelLayer
10
74.7504282
20
99.5645721
40
12.3466205
50
1.1277217
51
13.8800036
0
ARC
8
front_labelLayer
10
71.4016281
20
99.3851296
40
15.6987138
50
359.9919271
51
1.5419651
0
ARC
8
front_labelLayer
10
87.1907157
20
99.3134041
40
13.5451422
50
179.7059572
51
187.9160826
0
ARC
8
front_labelLayer
10
82.2227939
20
98.599767
40
8.5263065
50
187.7639319
51
200.0976868
0
ARC
8
front_labelLayer
10
79.4859718
20
97.5969917
40
5.6115594
50
200.0845899
51
216.9131552
0
ARC
8
front_labelLayer
10
78.4865797
20
96.8833793
40
4.3840007
50
217.3009527
51
261.7099097
0
ARC
8
front_labelLayer
10
78.950532
20
99.0973231
40
6.6431784
50
260.5033314
51
270.2476689
0
ARC
8
front_labelLayer
10
79.0390856
20
98.6668053
40
6.2128867
50
269.448164
51
284.7255644
0
ARC
8
front_labelLayer
10
79.530924
20
96.8427356
40
4.3237261
50
284.5662237
51
322.6333911
0
ARC
8
front_labelLayer
10
78.3809821
20
97.6735185
40
5.7419998
50
323.0089237
51
342.6390466
0
ARC
8
front_labelLayer
10
75.0919038
20
98.7484836
40
9.2021075
50
342.3615707
51
353.7537591
0
ARC
8
front_labelLayer
10
70.2393957
20
99.3333874
40
14.0895486
50
353.5363181
51
0.2014178
0
ARC
8
front_labelLayer
10
70.9828847
20
99.4510357
40
13.3461465
50
359.7075643
51
7.8972681
0
ARC
8
front_labelLayer
10
75.8706053
20
100.1517337
40
8.408537
50
7.7440013
51
20.0690088
0
ARC
8
front_labelLayer
10
78.5942504
20
101.1512065
40
5.5073024
50
20.0257149
51
37.4350467
0
ARC
8
front_labelLayer
10
79.4979354
20
101.7924475
40
4.4001351
50
37.9577648
51
80.4006234
0
ARC
8
front_labelLayer
10
78.9844033
20
99.5011289
40
6.7461502
50
79.345331
51
90.3174899
0
ARC
8
front_labelLayer
10
78.8893157
20
99.8817106
40
6.3657265
50
89.480603
51
103.8805067
0
ARC
8
front_labelLayer
10
78.35443
20
101.9185535
40
4.2601556
50
103.4685268
51
142.3118869
0
ARC
8
front_labelLayer
10
79.3942929
20
101.1872489
40
5.5304378
50
142.9025814
51
162.3749538
0
ARC
8
front_labelLayer
10
82.6708831
20
100.0953334
40
8.9839682
50
162.0653101
51
173.1674885
0
ARC
8
front_labelLayer
10
87.7799368
20
99.4436999
40
14.1343156
50
173.0086051
51
180.2463912
0
LINE
8
front_labelLayer
10
106.5490722
20
90.5367263
11
103.8742675
21
90.5367263
0
LINE
8
front_labelLayer
10
103.8742675
20
90.5367263
11
103.8742675
21
101.9610427
0
LINE
8
front_labelLayer
10
94.4641113
20
99.801863
11
94.4641113
21
90.5367263
0
LINE
8
front_labelLayer
10
94.4641113
20
90.5367263
11
91.7893066
21
90.5367263
0
LINE
8
front_labelLayer
10
91.7893066
20
90.5367263
11
91.7893066
21
108.1968826
0
LINE
8
front_labelLayer
10
91.7893066
20
108.1968826
11
93.9645996
21
108.1968826
0
LINE
8
front_labelLayer
10
93.9645996
20
108.1968826
11
94.3996582
21
105.7798904
0
LINE
8
front_labelLayer
10
94.3996582
20
105.7798904
11
94.5285644
21
105.7798904
0
LINE
8
front_labelLayer
10
106.5490722
20
102.0577224
11
106.5490722
21
90.5367263
0
ARC
8
front_labelLayer
10
96.3133823
20
102.0044032
40
7.5610096
50
359.6714212
51
8.6877222
0
ARC
8
front_labelLayer
10
99.1157163
20
102.4488351
40
4.723725
50
8.4931319
51
22.6579917
0
ARC
8
front_labelLayer
10
100.5394847
20
103.0405095
40
3.1819124
50
22.7024365
51
42.3419524
0
ARC
8
front_labelLayer
10
100.6995252
20
103.1125012
40
3.0156241
50
43.3790876
51
71.5386122
0
ARC
8
front_labelLayer
10
100.1010605
20
101.4402343
40
4.7914963
50
71.0828134
51
84.3691202
0
ARC
8
front_labelLayer
10
99.8324149
20
99.1561145
40
7.0910857
50
84.0197956
51
90.151049
0
ARC
8
front_labelLayer
10
99.7562584
20
98.1519835
40
8.095396
50
89.5933028
51
100.3717915
0
ARC
8
front_labelLayer
10
99.1841644
20
101.1535734
40
5.0399041
50
100.1176478
51
118.1602586
0
ARC
8
front_labelLayer
10
98.607635
20
102.2840994
40
3.7711949
50
118.5439378
51
139.1926838
0
ARC
8
front_labelLayer
10
99.1103333
20
101.9467827
40
4.3727482
50
140.1519034
51
160.3146487
0
ARC
8
front_labelLayer
10
102.1459666
20
100.8097626
40
7.6141306
50
159.9534345
51
171.3801207
0
ARC
8
front_labelLayer
10
107.104724
20
100.0126563
40
12.6364249
50
171.176572
51
178.3217653
0
ARC
8
front_labelLayer
10
111.5992941
20
99.8089438
40
17.1351844
50
178.0810323
51
180.0236764
0
ARC
8
front_labelLayer
10
99.1042255
20
102.8819725
40
5.4161428
50
116.9442896
51
147.6525634
0
ARC
8
front_labelLayer
10
99.6678804
20
101.9392627
40
6.5123601
50
115.8071847
51
117.6068333
0
ARC
8
front_labelLayer
10
99.9561838
20
101.2670626
40
7.2431044
50
94.3226692
51
115.5454362
0
ARC
8
front_labelLayer
10
100.1295457
20
99.7609307
40
8.7582199
50
89.957866
51
94.7109148
0
ARC
8
front_labelLayer
10
100.2012034
20
97.9587789
40
10.5605706
50
80.5585297
51
90.3538339
0
ARC
8
front_labelLayer
10
100.8611739
20
101.7815698
40
6.6813458
50
65.1094178
51
80.7638254
0
ARC
8
front_labelLayer
10
101.6326473
20
103.4903616
40
4.8066144
50
46.5584454
51
64.8782358
0
ARC
8
front_labelLayer
10
101.6943895
20
103.6683595
40
4.6355686
50
19.3848908
51
45.5997033
0
ARC
8
front_labelLayer
10
99.0125694
20
102.6620947
40
7.4995814
50
6.9633664
51
19.836339
0
ARC
8
front_labelLayer
10
94.8763855
20
102.1059771
40
11.6727865
50
359.7631415
51
7.2115729
0
LINE
8
front_labelLayer
10
120.1647949
20
92.7442458
11
120.1647949
21
90.6978591
0
LINE
8
front_labelLayer
10
112.2370605
20
95.6124099
11
112.2370605
21
106.1182693
0
LINE
8
front_labelLayer
10
112.2370605
20
106.1182693
11
109.7072753
21
106.1182693
0
LINE
8
front_labelLayer
10
109.7072753
20
106.1182693
11
109.7072753
21
107.4073318
0
LINE
8
front_labelLayer
10
109.7072753
20
107.4073318
11
112.2370605
21
108.5191482
0
LINE
8
front_labelLayer
10
112.2370605
20
108.5191482
11
113.3649902
21
112.289656
0
LINE
8
front_labelLayer
10
113.3649902
20
112.289656
11
114.9118652
21
112.289656
0
LINE
8
front_labelLayer
10
114.9118652
20
112.289656
11
114.9118652
21
108.1968826
0
LINE
8
front_labelLayer
10
114.9118652
20
108.1968826
11
120.0358886
21
108.1968826
0
LINE
8
front_labelLayer
10
120.0358886
20
108.1968826
11
120.0358886
21
106.1182693
0
LINE
8
front_labelLayer
10
120.0358886
20
106.1182693
11
114.9118652
21
106.1182693
0
LINE
8
front_labelLayer
10
114.9118652
20
106.1182693
11
114.9118652
21
95.7252029
0
ARC
8
front_labelLayer
10
117.7661449
20
101.2064114
40
8.7844503
50
269.8803643
51
278.3028172
0
ARC
8
front_labelLayer
10
117.8500935
20
100.5209603
40
8.0940767
50
278.4154665
51
279.0082099
0
ARC
8
front_labelLayer
10
116.8641509
20
106.8195962
40
14.469405
50
278.958977
51
280.5104441
0
ARC
8
front_labelLayer
10
117.8034785
20
101.7795617
40
9.3425877
50
280.4847442
51
282.6268184
0
ARC
8
front_labelLayer
10
118.6272661
20
98.1196938
40
5.5911566
50
282.5877055
51
285.5795114
0
ARC
8
front_labelLayer
10
119.0401832
20
96.60113
40
4.0175002
50
285.7235954
51
286.2559218
0
ARC
8
front_labelLayer
10
119.0402451
20
93.0763412
40
2.6309293
50
287.9887894
51
295.3048514
0
ARC
8
front_labelLayer
10
118.4056763
20
94.9961968
40
4.6529231
50
283.3069253
51
288.1197903
0
ARC
8
front_labelLayer
10
117.7353112
20
97.7924977
40
7.5284475
50
280.0070161
51
283.3735126
0
ARC
8
front_labelLayer
10
117.286624
20
100.2275306
40
10.0044203
50
279.1863455
51
280.1142748
0
ARC
8
front_labelLayer
10
117.0114753
20
101.7925369
40
11.5933012
50
275.5260416
51
279.2939502
0
ARC
8
front_labelLayer
10
117.3217251
20
98.5520054
40
8.3379541
50
270.8932647
51
275.5483698
0
ARC
8
front_labelLayer
10
117.3607069
20
97.0705368
40
6.8560761
50
270.0031506
51
270.7605451
0
ARC
8
front_labelLayer
10
117.2531479
20
97.1998287
40
6.9862018
50
253.784799
51
270.885249
0
ARC
8
front_labelLayer
10
116.4254691
20
94.3771261
40
4.0446668
50
190.3817671
51
253.8772361
0
ARC
8
front_labelLayer
10
120.6441409
20
95.5177791
40
8.407613
50
179.355101
51
192.8477548
0
ARC
8
front_labelLayer
10
120.2979256
20
95.6915164
40
5.3861657
50
179.6416548
51
189.7505957
0
ARC
8
front_labelLayer
10
118.3965035
20
95.3523734
40
3.4547955
50
189.5479434
51
205.7873735
0
ARC
8
front_labelLayer
10
117.6151005
20
94.9920425
40
2.5944994
50
206.1294176
51
221.408397
0
ARC
8
front_labelLayer
10
117.5274873
20
94.9255641
40
2.484831
50
221.5949287
51
262.3505132
0
ARC
8
front_labelLayer
10
117.7358663
20
95.9971384
40
3.5751781
50
261.3266418
51
270.1912921
0
LINE
8
left_outsideCutPath
10
168
20
203
11
168
21
3
0
LINE
8
left_outsideCutPath
10
168
20
3
11
234
21
3
0
LINE
8
left_outsideCutPath
10
234
20
3
11
234
21
203
0
LINE
8
left_outsideCutPath
10
234
20
203
11
168
21
203
0
LINE
8
left_labelLayer
10
192.8370117
20
108.0435968
11
192.8370117
21
98.0146906
0
LINE
8
left_labelLayer
10
192.8370117
20
98.0146906
11
191.7670898
21
98.0146906
0
LINE
8
left_labelLayer
10
191.7670898
20
98.0146906
11
191.7670898
21
108.0435968
0
LINE
8
left_labelLayer
10
191.7670898
20
108.0435968
11
192.8370117
21
108.0435968
0
LINE
8
left_labelLayer
10
200.6874023
20
102.0301203
11
200.6874023
21
101.3533625
0
LINE
8
left_labelLayer
10
200.6874023
20
101.3533625
11
195.8211914
21
101.3533625
0
LINE
8
left_labelLayer
10
200.3844726
20
99.2973078
11
200.3844726
21
98.3434015
0
LINE
8
left_labelLayer
10
195.8469726
20
102.2234796
11
199.5401367
21
102.2234796
0
ARC
8
left_labelLayer
10
198.054762
20
102.0433056
40
4.1576701
50
256.0087944
51
270.4848039
0
ARC
8
left_labelLayer
10
197.7520013
20
100.8679253
40
2.9439763
50
223.5465689
51
256.1956973
0
ARC
8
left_labelLayer
10
197.9190197
20
100.9893174
40
3.1487827
50
194.0877302
51
223.0538203
0
ARC
8
left_labelLayer
10
199.4493744
20
101.4078122
40
4.7350931
50
181.3574722
51
194.4919865
0
ARC
8
left_labelLayer
10
200.8244814
20
101.4875165
40
6.1118839
50
179.9887739
51
181.799066
0
ARC
8
left_labelLayer
10
200.3306064
20
101.5264007
40
5.6181352
50
168.9539257
51
180.384345
0
ARC
8
left_labelLayer
10
198.4957501
20
101.9000088
40
3.7457203
50
149.4070977
51
169.1853767
0
ARC
8
left_labelLayer
10
197.9845409
20
102.1701064
40
3.1683276
50
140.1056215
51
148.9066962
0
ARC
8
left_labelLayer
10
197.6704501
20
102.4596819
40
2.7417005
50
92.4762578
51
140.5386427
0
ARC
8
left_labelLayer
10
197.8104015
20
101.425444
40
3.782216
50
89.9637727
51
93.9176008
0
ARC
8
left_labelLayer
10
197.8437982
20
101.9481602
40
3.2596466
50
74.2126016
51
90.5449969
0
ARC
8
left_labelLayer
10
198.0479602
20
102.7003842
40
2.4802656
50
41.2064618
51
74.0232694
0
ARC
8
left_labelLayer
10
197.6613164
20
102.3657726
40
2.9915885
50
11.5994316
51
41.1495949
0
ARC
8
left_labelLayer
10
196.332831
20
102.0593988
40
4.3546697
50
359.6147704
51
12.0336365
0
ARC
8
left_labelLayer
10
200.1146022
20
101.4391506
40
4.2942678
50
181.1446942
51
190.8007045
0
ARC
8
left_labelLayer
10
198.5996351
20
101.1403565
40
2.7501631
50
190.6005746
51
206.0275213
0
ARC
8
left_labelLayer
10
197.929355
20
100.8234771
40
2.0088348
50
206.2950096
51
222.5558148
0
ARC
8
left_labelLayer
10
197.8699655
20
100.7923816
40
1.9441339
50
223.0644934
51
258.1401492
0
ARC
8
left_labelLayer
10
198.1064076
20
101.7659558
40
2.945685
50
257.5311858
51
270.4319205
0
ARC
8
left_labelLayer
10
198.1090464
20
104.4711671
40
5.6508463
50
270.1983952
51
292.2090402
0
ARC
8
left_labelLayer
10
197.8376011
20
105.2506958
40
6.4752903
50
291.8255082
51
293.1613378
0
ARC
8
left_labelLayer
10
197.8246784
20
104.2344194
40
6.423133
50
287.9023052
51
293.4861486
0
ARC
8
left_labelLayer
10
198.2906208
20
102.7968234
40
4.9119144
50
281.9935949
51
287.8851266
0
ARC
8
left_labelLayer
10
198.4035523
20
102.3909324
40
4.4914922
50
275.9054204
51
281.6603774
0
ARC
8
left_labelLayer
10
198.1774911
20
104.5009747
40
6.6136
50
271.911964
51
275.9727031
0
ARC
8
left_labelLayer
10
198.0949795
20
106.6025091
40
8.7167262
50
269.9668843
51
271.9931439
0
ARC
8
left_labelLayer
10
197.7793711
20
102.2027932
40
2.1090677
50
89.442231
51
106.2089396
0
ARC
8
left_labelLayer
10
197.652489
20
102.665431
40
1.6294178
50
106.4657256
51
137.9176365
0
ARC
8
left_labelLayer
10
198.0162682
20
102.3459731
40
2.1135192
50
138.0994901
51
160.5866353
0
ARC
8
left_labelLayer
10
198.9513549
20
102.0019698
40
3.1098119
50
160.3353307
51
172.5315348
0
ARC
8
left_labelLayer
10
199.8718505
20
101.8544696
40
4.0417584
50
172.1544175
51
174.7616358
0
ARC
8
left_labelLayer
10
195.8942691
20
102.2441898
40
3.6459264
50
359.6745376
51
8.9224397
0
ARC
8
left_labelLayer
10
197.1970466
20
102.4564565
40
2.3260042
50
8.7342245
51
23.277169
0
ARC
8
left_labelLayer
10
197.8155245
20
102.7160763
40
1.655282
50
23.4821545
51
39.7072029
0
ARC
8
left_labelLayer
10
197.9674453
20
102.8297626
40
1.4658077
50
40.0822855
51
80.6243336
0
ARC
8
left_labelLayer
10
197.8110692
20
102.1129426
40
2.1988468
50
79.6468243
51
90.2909781
0
LINE
8
left_labelLayer
10
205.6954101
20
105.0787531
11
205.6954101
21
104.2473078
0
LINE
8
left_labelLayer
10
205.6954101
20
104.2473078
11
203.897168
21
104.2473078
0
LINE
8
left_labelLayer
10
203.897168
20
104.2473078
11
203.897168
21
98.0146906
0
LINE
8
left_labelLayer
10
203.897168
20
98.0146906
11
202.8272461
21
98.0146906
0
LINE
8
left_labelLayer
10
202.8272461
20
98.0146906
11
202.8272461
21
104.2473078
0
LINE
8
left_labelLayer
10
202.8272461
20
104.2473078
11
201.5639648
21
104.2473078
0
LINE
8
left_labelLayer
10
201.5639648
20
104.2473078
11
201.5639648
21
104.7307062
0
LINE
8
left_labelLayer
10
201.5639648
20
104.7307062
11
202.8272461
21
105.117425
0
LINE
8
left_labelLayer
10
202.8272461
20
105.117425
11
202.8272461
21
105.510589
0
LINE
8
left_labelLayer
10
206.4172851
20
107.8889093
11
206.1401367
21
107.0316828
0
LINE
8
left_labelLayer
10
203.897168
20
105.5363703
11
203.897168
21
105.0787531
0
LINE
8
left_labelLayer
10
203.897168
20
105.0787531
11
205.6954101
21
105.0787531
0
ARC
8
left_labelLayer
10
207.1632667
20
105.560439
40
4.3363071
50
167.5776113
51
180.6586839
0
ARC
8
left_labelLayer
10
205.1241901
20
106.035833
40
2.2428497
50
141.7433716
51
168.2322224
0
ARC
8
left_labelLayer
10
204.7921897
20
106.2091126
40
1.8761436
50
98.2551475
51
139.6203373
0
ARC
8
left_labelLayer
10
205.0836922
20
104.8624833
40
3.2520659
50
89.6696698
51
99.9314311
0
ARC
8
left_labelLayer
10
205.0845063
20
104.6691378
40
3.4454042
50
81.5641109
51
89.701745
0
ARC
8
left_labelLayer
10
204.8422889
20
102.979304
40
5.1524956
50
75.9739848
51
81.6564771
0
ARC
8
left_labelLayer
10
204.42662
20
101.2551988
40
6.9259558
50
73.2963818
51
76.0946186
0
ARC
8
left_labelLayer
10
204.5312939
20
102.091519
40
5.1955359
50
71.9613381
51
76.591809
0
ARC
8
left_labelLayer
10
204.9343677
20
103.8013753
40
3.4388208
50
76.5183925
51
83.0216455
0
ARC
8
left_labelLayer
10
205.0747801
20
104.93052
40
2.3009824
50
83.076116
51
89.7926925
0
ARC
8
left_labelLayer
10
205.0701599
20
105.788632
40
1.4429135
50
89.485944
51
103.419697
0
ARC
8
left_labelLayer
10
204.9400709
20
106.2884256
40
0.9266348
50
102.7677369
51
144.3380486
0
ARC
8
left_labelLayer
10
205.2021412
20
106.1198066
40
1.2379652
50
145.0688376
51
162.1802127
0
ARC
8
left_labelLayer
10
206.1007261
20
105.8174785
40
2.1859969
50
161.8438039
51
171.7846515
0
ARC
8
left_labelLayer
10
207.5662485
20
105.5973611
40
3.6679433
50
171.6527496
51
178.4383767
0
ARC
8
left_labelLayer
10
208.9486887
20
105.5384069
40
5.0515214
50
178.1972618
51
180.0230995
0
LINE
8
left_labelLayer
10
210.2329101
20
98.8976984
11
210.2329101
21
98.0791437
0
LINE
8
left_labelLayer
10
207.0618164
20
100.044964
11
207.0618164
21
104.2473078
0
LINE
8
left_labelLayer
10
207.0618164
20
104.2473078
11
206.0499023
21
104.2473078
0
LINE
8
left_labelLayer
10
206.0499023
20
104.2473078
11
206.0499023
21
104.7629328
0
LINE
8
left_labelLayer
10
206.0499023
20
104.7629328
11
207.0618164
21
105.2076593
0
LINE
8
left_labelLayer
10
207.0618164
20
105.2076593
11
207.5129883
21
106.7158625
0
LINE
8
left_labelLayer
10
207.5129883
20
106.7158625
11
208.1317383
21
106.7158625
0
LINE
8
left_labelLayer
10
208.1317383
20
106.7158625
11
208.1317383
21
105.0787531
0
LINE
8
left_labelLayer
10
208.1317383
20
105.0787531
11
210.1813476
21
105.0787531
0
LINE
8
left_labelLayer
10
210.1813476
20
105.0787531
11
210.1813476
21
104.2473078
0
LINE
8
left_labelLayer
10
210.1813476
20
104.2473078
11
208.1317383
21
104.2473078
0
LINE
8
left_labelLayer
10
208.1317383
20
104.2473078
11
208.1317383
21
100.0900812
0
ARC
8
left_labelLayer
10
209.2734495
20
102.28257
40
3.5137855
50
269.8803761
51
278.302816
0
ARC
8
left_labelLayer
10
209.3067898
20
102.010079
40
3.2393424
50
278.4152745
51
279.0077046
0
ARC
8
left_labelLayer
10
208.9125125
20
104.528659
40
5.7885943
50
278.9590813
51
280.5103253
0
ARC
8
left_labelLayer
10
209.28841
20
102.511681
40
3.7368889
50
280.4847473
51
282.6269053
0
ARC
8
left_labelLayer
10
209.6179062
20
101.0478629
40
2.2364467
50
282.5875991
51
285.5794264
0
ARC
8
left_labelLayer
10
209.7836955
20
100.4381654
40
1.6046283
50
285.7240669
51
286.2571801
0
ARC
8
left_labelLayer
10
209.78308
20
99.0305621
40
1.0523992
50
287.9888923
51
295.3047629
0
ARC
8
left_labelLayer
10
209.5292561
20
99.7985026
40
1.861194
50
283.3069561
51
288.1197571
0
ARC
8
left_labelLayer
10
209.2610865
20
100.9171453
40
3.0115282
50
280.007099
51
283.3734286
0
ARC
8
left_labelLayer
10
209.0818573
20
101.8897234
40
4.0004614
50
279.186246
51
280.1144784
0
ARC
8
left_labelLayer
10
208.9715945
20
102.516915
40
4.63722
50
275.5260099
51
279.2940002
0
ARC
8
left_labelLayer
10
209.0956842
20
101.2207756
40
3.3351549
50
270.893237
51
275.5483794
0
ARC
8
left_labelLayer
10
209.111275
20
100.6282026
40
2.7424183
50
270.0031494
51
270.7605472
0
ARC
8
left_labelLayer
10
209.0682511
20
100.6799288
40
2.794478
50
253.7847875
51
270.885254
0
ARC
8
left_labelLayer
10
208.7371796
20
99.5508504
40
1.6178665
50
190.3817637
51
253.8772416
0
ARC
8
left_labelLayer
10
210.4246521
20
100.0071122
40
3.3630487
50
179.3551107
51
192.8477504
0
ARC
8
left_labelLayer
10
210.2861783
20
100.0766077
40
2.1544822
50
179.6416866
51
189.7505529
0
ARC
8
left_labelLayer
10
209.525591
20
99.9409484
40
1.3819155
50
189.5479184
51
205.7873815
0
ARC
8
left_labelLayer
10
209.2130311
20
99.7968161
40
1.0377981
50
206.1294056
51
221.408409
0
ARC
8
left_labelLayer
10
209.177987
20
99.7702255
40
0.9939322
50
221.5949245
51
262.3505174
0
ARC
8
left_labelLayer
10
209.2613394
20
100.1988617
40
1.4300775
50
261.3266514
51
270.1912627
0
LINE
8
top_outsideCutPath
10
237
20
81
11
237
21
3
0
LINE
8
top_outsideCutPath
10
237
20
3
11
402
21
3
0
LINE
8
top_outsideCutPath
10
402
20
3
11
402
21
81
0
LINE
8
top_outsideCutPath
10
402
20
81
11
237
21
81
0
LINE
8
top_labelLayer
10
312.7511074
20
39.7757813
11
312.7511074
21
38.8083984
0
LINE
8
top_labelLayer
10
309.0034511
20
41.1316406
11
309.0034511
21
46.0980469
0
LINE
8
top_labelLayer
10
309.0034511
20
46.0980469
11
307.8075527
21
46.0980469
0
LINE
8
top_labelLayer
10
307.8075527
20
46.0980469
11
307.8075527
21
46.7074219
0
LINE
8
top_labelLayer
10
307.8075527
20
46.7074219
11
309.0034511
21
47.2330078
0
LINE
8
top_labelLayer
10
309.0034511
20
47.2330078
11
309.5366542
21
49.0154297
0
LINE
8
top_labelLayer
10
309.5366542
20
49.0154297
11
310.2679042
21
49.0154297
0
LINE
8
top_labelLayer
10
310.2679042
20
49.0154297
11
310.2679042
21
47.0806641
0
LINE
8
top_labelLayer
10
310.2679042
20
47.0806641
11
312.6901699
21
47.0806641
0
LINE
8
top_labelLayer
10
312.6901699
20
47.0806641
11
312.6901699
21
46.0980469
0
LINE
8
top_labelLayer
10
312.6901699
20
46.0980469
11
310.2679042
21
46.0980469
0
LINE
8
top_labelLayer
10
310.2679042
20
46.0980469
11
310.2679042
21
41.1849609
0
ARC
8
top_labelLayer
10
311.617202
20
43.776045
40
4.1526166
50
269.880337
51
278.3028561
0
ARC
8
top_labelLayer
10
311.6572294
20
43.4498025
40
3.8240208
50
278.4152797
51
279.008375
0
ARC
8
top_labelLayer
10
311.1908103
20
46.429537
40
6.8400355
50
278.9589761
51
280.5104538
0
ARC
8
top_labelLayer
10
311.6348475
20
44.0470061
40
4.4164811
50
280.4847954
51
282.6268768
0
ARC
8
top_labelLayer
10
312.0242487
20
42.3170198
40
2.6432129
50
282.5877173
51
285.5793866
0
ARC
8
top_labelLayer
10
312.2201218
20
41.5966774
40
1.8967361
50
285.7240281
51
286.2570409
0
ARC
8
top_labelLayer
10
312.2195032
20
39.9327703
40
1.2437102
50
287.9887604
51
295.3048329
0
ARC
8
top_labelLayer
10
311.9194983
20
40.8404327
40
2.1996599
50
283.3070226
51
288.1196769
0
ARC
8
top_labelLayer
10
311.602598
20
42.1623596
40
3.5590369
50
280.0070622
51
283.3734315
0
ARC
8
top_labelLayer
10
311.3906019
20
43.3127899
40
4.7288118
50
279.1863881
51
280.1144255
0
ARC
8
top_labelLayer
10
311.2604414
20
44.0531827
40
5.4804977
50
275.5260737
51
279.2939631
0
ARC
8
top_labelLayer
10
311.4071125
20
42.5212283
40
3.941539
50
270.8932477
51
275.5483992
0
ARC
8
top_labelLayer
10
311.4255385
20
41.8201138
40
3.2402311
50
270.0031511
51
270.760738
0
ARC
8
top_labelLayer
10
311.3746922
20
41.8820553
40
3.3025666
50
253.7847946
51
270.8852524
0
ARC
8
top_labelLayer
10
310.9834258
20
40.5476881
40
1.912024
50
190.381762
51
253.877242
0
ARC
8
top_labelLayer
10
312.977711
20
41.0869065
40
3.9745117
50
179.3551082
51
192.8477492
0
ARC
8
top_labelLayer
10
312.8140462
20
41.1690375
40
2.5461918
50
179.6416802
51
189.7506035
0
ARC
8
top_labelLayer
10
311.9151872
20
41.0087139
40
1.6331754
50
189.5479346
51
205.7873718
0
ARC
8
top_labelLayer
10
311.545799
20
40.8383778
40
1.2264929
50
206.1294578
51
221.4084079
0
ARC
8
top_labelLayer
10
311.50438
20
40.8069494
40
1.174647
50
221.5949173
51
262.3505168
0
ARC
8
top_labelLayer
10
311.6028873
20
41.3135219
40
1.6900938
50
261.3266669
51
270.1912666
0
ARC
8
top_labelLayer
10
315.0938578
20
42.8700318
40
6.5314214
50
349.1761882
51
0.3862547
0
ARC
8
top_labelLayer
10
317.2928381
20
42.4316598
40
4.2892772
50
330.2507011
51
349.4116559
0
ARC
8
top_labelLayer
10
317.9695711
20
42.0799197
40
3.5273299
50
318.1439708
51
329.7566299
0
ARC
8
top_labelLayer
10
318.0917087
20
41.9820386
40
3.3710576
50
278.8959215
51
317.9979124
0
ARC
8
top_labelLayer
10
317.7769999
20
43.4898419
40
4.9100056
50
269.7502745
51
279.8033126
0
ARC
8
top_labelLayer
10
317.725959
20
42.640291
40
4.0605164
50
253.5437047
51
270.4182457
0
ARC
8
top_labelLayer
10
317.5907934
20
42.1174327
40
3.5208346
50
238.8115597
51
253.2428314
0
ARC
8
top_labelLayer
10
317.5471693
20
42.0297046
40
3.4232046
50
207.7946944
51
238.6757951
0
ARC
8
top_labelLayer
10
318.1732451
20
42.4131311
40
4.1561087
50
205.656021
51
208.4460421
0
ARC
8
top_labelLayer
10
318.6552653
20
42.6139647
40
4.6776427
50
188.9102365
51
205.3171466
0
ARC
8
top_labelLayer
10
320.2801198
20
42.8891624
40
6.3255457
50
179.7744587
51
189.0932776
0
ARC
8
top_labelLayer
10
320.5198102
20
42.9585307
40
6.5653378
50
169.2442961
51
180.3880779
0
ARC
8
top_labelLayer
10
318.2902742
20
43.3992292
40
4.2927599
50
150.7111521
51
169.469543
0
ARC
8
top_labelLayer
10
317.5785461
20
43.7647258
40
3.4933341
50
138.1759715
51
150.2287255
0
ARC
8
top_labelLayer
10
317.4601439
20
43.8555851
40
3.344531
50
99.1759412
51
137.9832811
0
ARC
8
top_labelLayer
10
317.7860043
20
42.3220449
40
4.9110165
50
89.7326476
51
100.0759764
0
ARC
8
top_labelLayer
10
317.8511306
20
42.9843343
40
4.2488832
50
73.5222658
51
90.5692167
0
ARC
8
top_labelLayer
10
318.1003037
20
43.8896426
40
3.310128
50
41.1445605
51
73.2133888
0
ARC
8
top_labelLayer
10
317.6246555
20
43.4808283
40
3.937303
50
13.5014345
51
41.070351
0
ARC
8
top_labelLayer
10
315.7869912
20
42.9999357
40
5.8365829
50
1.12772
51
13.8800048
0
ARC
8
top_labelLayer
10
314.204009
20
42.9151117
40
7.4211219
50
359.9918999
51
1.5419562
0
ARC
8
top_labelLayer
10
321.6678614
20
42.8812009
40
6.4031665
50
179.7059517
51
187.9160664
0
ARC
8
top_labelLayer
10
319.319377
20
42.5438443
40
4.0306135
50
187.7639187
51
200.0976864
0
ARC
8
top_labelLayer
10
318.0256076
20
42.069805
40
2.652734
50
200.0845788
51
216.9131646
0
ARC
8
top_labelLayer
10
317.5531706
20
41.7324623
40
2.0724367
50
217.3009475
51
261.7099069
0
ARC
8
top_labelLayer
10
317.7724941
20
42.7790616
40
3.140419
50
260.5033422
51
270.2476565
0
ARC
8
top_labelLayer
10
317.8143551
20
42.5755382
40
2.9370026
50
269.4481656
51
284.7255577
0
ARC
8
top_labelLayer
10
318.0468604
20
41.7132492
40
2.0439433
50
284.566227
51
322.633392
0
ARC
8
top_labelLayer
10
317.5032524
20
42.1059827
40
2.7143992
50
323.0089181
51
342.6390464
0
ARC
8
top_labelLayer
10
315.9484148
20
42.6141479
40
4.350087
50
342.3615743
51
353.7537631
0
ARC
8
top_labelLayer
10
313.6545364
20
42.8906464
40
6.6604793
50
353.5362993
51
0.2014337
0
ARC
8
top_labelLayer
10
314.0059772
20
42.946265
40
6.3090796
50
359.7075526
51
7.8972666
0
ARC
8
top_labelLayer
10
316.3165355
20
43.2775046
40
3.9749372
50
7.7439895
51
20.0690206
0
ARC
8
top_labelLayer
10
317.6040687
20
43.7499807
40
2.6034527
50
20.0257126
51
37.43504
0
ARC
8
top_labelLayer
10
318.0312663
20
44.0531135
40
2.0800633
50
37.9577574
51
80.4006287
0
ARC
8
top_labelLayer
10
317.7885048
20
42.9699318
40
3.1891014
50
79.3453624
51
90.3174788
0
ARC
8
top_labelLayer
10
317.7435546
20
43.1498551
40
3.0092529
50
89.480598
51
103.8805
0
ARC
8
top_labelLayer
10
317.4907001
20
44.1127267
40
2.0138918
50
103.4685343
51
142.3118919
0
ARC
8
top_labelLayer
10
317.9822679
20
43.7670203
40
2.6143853
50
142.9025567
51
162.3749561
0
ARC
8
top_labelLayer
10
319.531208
20
43.2508399
40
4.24697
50
162.0653108
51
173.1674807
0
ARC
8
top_labelLayer
10
321.9463826
20
42.9427966
40
6.6816652
50
173.0085997
51
180.246398
0
LINE
8
top_labelLayer
10
325.1061855
20
39.80625
11
325.0147792
21
39.80625
0
LINE
8
top_labelLayer
10
325.1061855
20
38.4199219
11
325.1061855
21
34.9845703
0
LINE
8
top_labelLayer
10
325.1061855
20
34.9845703
11
323.8417324
21
34.9845703
0
LINE
8
top_labelLayer
10
323.8417324
20
34.9845703
11
323.8417324
21
47.0806641
0
LINE
8
top_labelLayer
10
323.8417324
20
47.0806641
11
324.8700527
21
47.0806641
0
LINE
8
top_labelLayer
10
324.8700527
20
47.0806641
11
325.045248
21
45.9380859
0
LINE
8
top_labelLayer
10
325.045248
20
45.9380859
11
325.1061855
21
45.9380859
0
LINE
8
top_labelLayer
10
325.1061855
20
43.1958984
11
325.1061855
21
42.9140625
0
ARC
8
top_labelLayer
10
327.7051755
20
42.415184
40
3.8353605
50
255.7755284
51
270.3185343
0
ARC
8
top_labelLayer
10
327.5957228
20
41.9289041
40
3.3371218
50
245.9801657
51
255.5455901
0
ARC
8
top_labelLayer
10
327.3837303
20
41.4359118
40
2.8005371
50
215.5850267
51
245.836156
0
ARC
8
top_labelLayer
10
313.1428165
20
38.3060297
40
11.9663762
50
2.9503323
51
7.2021028
0
ARC
8
top_labelLayer
10
315.0788936
20
38.4143483
40
10.0272936
50
0.0318473
51
2.9016224
0
ARC
8
top_labelLayer
10
327.8915279
20
43.9819353
40
3.4036242
50
132.3565088
51
144.9195675
0
ARC
8
top_labelLayer
10
327.3701173
20
44.5507782
40
2.6319729
50
115.4006075
51
132.3118384
0
ARC
8
top_labelLayer
10
327.5735028
20
44.0556587
40
3.1666005
50
97.7066449
51
114.8821317
0
ARC
8
top_labelLayer
10
327.7155418
20
43.1344628
40
4.0985596
50
89.8468381
51
97.9474095
0
ARC
8
top_labelLayer
10
327.7656324
20
43.3573334
40
3.875872
50
74.1923489
51
90.5785214
0
ARC
8
top_labelLayer
10
328.0338211
20
44.3322544
40
2.864774
50
38.052342
51
74.0417328
0
ARC
8
top_labelLayer
10
327.2941103
20
43.7652973
40
3.7967312
50
16.3355964
51
37.9090609
0
ARC
8
top_labelLayer
10
325.3508779
20
43.1667682
40
5.8299272
50
4.5766441
51
16.6088877
0
ARC
8
top_labelLayer
10
322.9584805
20
42.9283822
40
8.2338504
50
359.9003553
51
4.9018216
0
ARC
8
top_labelLayer
10
323.7786828
20
42.8703219
40
7.4137645
50
350.6562672
51
0.3380426
0
ARC
8
top_labelLayer
10
326.3632265
20
42.430718
40
4.7921605
50
335.8305987
51
350.8254757
0
ARC
8
top_labelLayer
10
327.5001286
20
41.9400166
40
3.5540544
50
321.3161558
51
335.5435996
0
ARC
8
top_labelLayer
10
327.93478
20
41.5858426
40
2.9933998
50
274.0640076
51
321.4081005
0
ARC
8
top_labelLayer
10
327.7322911
20
42.8685029
40
4.288624
50
269.922604
51
275.5481489
0
ARC
8
top_labelLayer
10
327.5176424
20
42.5156905
40
3.643387
50
89.5904437
51
100.3501736
0
ARC
8
top_labelLayer
10
327.2578413
20
43.8805319
40
2.2541012
50
100.0868086
51
118.1917909
0
ARC
8
top_labelLayer
10
326.9916993
20
44.3995968
40
1.6709143
50
118.556952
51
141.0243179
0
ARC
8
top_labelLayer
10
327.3972466
20
44.1135307
40
2.1663715
50
141.8890326
51
160.5973208
0
ARC
8
top_labelLayer
10
328.8225073
20
43.5905603
40
3.6844742
50
160.2895676
51
171.2453208
0
ARC
8
top_labelLayer
10
331.1659366
20
43.2127242
40
6.0581319
50
171.0868631
51
178.3247453
0
ARC
8
top_labelLayer
10
333.1528048
20
43.1182876
40
8.0469937
50
178.0662045
51
179.447391
0
ARC
8
top_labelLayer
10
333.4665724
20
42.8814164
40
8.3604506
50
179.7762697
51
185.7075348
0
ARC
8
top_labelLayer
10
330.170342
20
42.5417856
40
5.046795
50
185.5924725
51
194.2050731
0
ARC
8
top_labelLayer
10
328.0588137
20
41.9937698
40
2.8653802
50
193.9430322
51
208.0218546
0
ARC
8
top_labelLayer
10
327.2044964
20
41.5591546
40
1.9071122
50
208.5536501
51
217.5604737
0
ARC
8
top_labelLayer
10
327.1348814
20
41.5301992
40
1.8343798
50
218.1690551
51
253.8047029
0
ARC
8
top_labelLayer
10
327.4751224
20
42.5791989
40
2.9368477
50
253.1382476
51
266.8483128
0
ARC
8
top_labelLayer
10
327.5705347
20
43.7044541
40
4.0657839
50
266.3776015
51
270.0510069
0
ARC
8
top_labelLayer
10
327.6029467
20
41.7690318
40
2.1305544
50
269.2256782
51
292.0430336
0
ARC
8
top_labelLayer
10
327.6316933
20
41.5977161
40
1.9613342
50
293.142956
51
324.1353846
0
ARC
8
top_labelLayer
10
327.2045023
20
41.959391
40
2.5197903
50
323.1616054
51
325.0152582
0
ARC
8
top_labelLayer
10
326.7472374
20
42.2429121
40
3.0571349
50
325.5753884
51
344.150468
0
ARC
8
top_labelLayer
10
325.1652451
20
42.710565
40
4.7067388
50
343.933631
51
355.1137598
0
ARC
8
top_labelLayer
10
323.1458139
20
42.9154839
40
6.7363623
50
354.8401912
51
0.1174855
0
ARC
8
top_labelLayer
10
323.5014316
20
42.9614983
40
6.3808117
50
359.7108499
51
7.8610545
0
ARC
8
top_labelLayer
10
325.821504
20
43.2922201
40
4.0373219
50
7.7149557
51
19.8859874
0
ARC
8
top_labelLayer
10
327.0974725
20
43.7531079
40
2.6806671
50
19.8991205
51
35.8980299
0
ARC
8
top_labelLayer
10
327.6666096
20
44.1841298
40
1.9669642
50
35.4481595
51
85.2266583
0
ARC
8
top_labelLayer
10
327.5477108
20
43.4385045
40
2.720483
50
84.0379006
51
90.0847762
0
LINE
8
back_outsideCutPath
10
0
20
406
11
0
21
206
0
LINE
8
back_outsideCutPath
10
0
20
206
11
165
21
206
0
LINE
8
back_outsideCutPath
10
165
20
206
11
165
21
406
0
LINE
8
back_outsideCutPath
10
165
20
406
11
0
21
406
0
LINE
8
back_labelLayer
10
50.9663086
20
295.8971547
11
50.7729492
21
295.8971547
0
LINE
8
back_labelLayer
10
50.7729492
20
295.8971547
11
50.2089844
21
293.625182
0
LINE
8
back_labelLayer
10
50.2089844
20
293.625182
11
48.2915039
21
293.625182
0
LINE
8
back_labelLayer
10
48.2915039
20
293.625182
11
48.2915039
21
318.6974477
0
LINE
8
back_labelLayer
10
48.2915039
20
318.6974477
11
50.9663086
21
318.6974477
0
LINE
8
back_labelLayer
10
50.9663086
20
318.6974477
11
50.9663086
21
312.6066273
0
LINE
8
back_labelLayer
10
50.8374023
20
308.9327992
11
50.9663086
21
308.9327992
0
ARC
8
back_labelLayer
10
56.5895178
20
303.4006372
40
8.175134
50
74.2393363
51
90.562378
0
ARC
8
back_labelLayer
10
57.1300857
20
305.3837344
40
6.1197907
50
38.56313
51
74.0670402
0
ARC
8
back_labelLayer
10
55.738962
20
304.3020551
40
7.8818631
50
16.4709295
51
38.4075276
0
ARC
8
back_labelLayer
10
51.7313272
20
303.0453803
40
12.0815389
50
5.1338551
51
16.7973311
0
ARC
8
back_labelLayer
10
46.6720343
20
302.507952
40
17.1688248
50
359.87793
51
5.4093504
0
ARC
8
back_labelLayer
10
48.1580862
20
302.3788477
40
15.6830071
50
350.6562841
51
0.3380325
0
ARC
8
back_labelLayer
10
53.6254433
20
301.4489106
40
10.1372528
50
335.8305943
51
350.8254859
0
ARC
8
back_labelLayer
10
56.0304317
20
300.410883
40
7.5181769
50
321.3161469
51
335.5436197
0
ARC
8
back_labelLayer
10
56.949874
20
299.6616774
40
6.3321917
50
274.0640064
51
321.4081009
0
ARC
8
back_labelLayer
10
56.5215385
20
302.3749299
40
9.0720216
50
269.9225625
51
275.5481493
0
ARC
8
back_labelLayer
10
56.4641712
20
301.4160563
40
8.1132653
50
255.7755393
51
270.3185405
0
ARC
8
back_labelLayer
10
56.2326351
20
300.3873732
40
7.0592846
50
245.9801464
51
255.5455863
0
ARC
8
back_labelLayer
10
55.7841898
20
299.3445141
40
5.9242102
50
215.5850213
51
245.8361656
0
ARC
8
back_labelLayer
10
-4.8010694
20
312.5594817
40
55.7673979
50
358.1123142
51
0.0484377
0
ARC
8
back_labelLayer
10
10.7196107
20
312.0384044
40
40.2379774
50
355.7238689
51
358.1258948
0
ARC
8
back_labelLayer
10
17.5801008
20
311.5668901
40
33.3614529
50
355.4714341
51
355.6528723
0
ARC
8
back_labelLayer
10
55.9547024
20
305.4542582
40
6.0814735
50
95.1835106
51
145.1109008
0
ARC
8
back_labelLayer
10
56.489241
20
302.4399448
40
9.1354545
50
89.874336
51
96.8145349
0
ARC
8
back_labelLayer
10
56.0665601
20
301.8194144
40
7.5164254
50
89.5731343
51
100.7324259
0
ARC
8
back_labelLayer
10
55.5101359
20
304.6306642
40
4.6507902
50
100.4469486
51
119.6700703
0
ARC
8
back_labelLayer
10
54.9941598
20
305.5953427
40
3.5572996
50
120.14029
51
142.4249114
0
ARC
8
back_labelLayer
10
55.8478041
20
305.0306289
40
4.5788042
50
143.3382452
51
161.2559735
0
ARC
8
back_labelLayer
10
59.4175334
20
303.7632562
40
8.3666347
50
160.892634
51
171.2334409
0
ARC
8
back_labelLayer
10
65.3768471
20
302.8018785
40
14.4029124
50
171.0667864
51
177.845682
0
ARC
8
back_labelLayer
10
71.5743486
20
302.4866769
40
20.6080455
50
177.6176775
51
180.0425477
0
ARC
8
back_labelLayer
10
68.6517713
20
302.4023161
40
17.6855975
50
179.7762753
51
185.7075307
0
ARC
8
back_labelLayer
10
61.6789668
20
301.6838691
40
10.6759324
50
185.5924868
51
194.2050714
0
ARC
8
back_labelLayer
10
57.2122668
20
300.5246054
40
6.061396
50
193.9430463
51
208.0218346
0
ARC
8
back_labelLayer
10
55.4050242
20
299.6052107
40
4.0342537
50
208.5536377
51
217.5605106
0
ARC
8
back_labelLayer
10
55.2577793
20
299.5439683
40
3.8804165
50
218.169046
51
253.8047158
0
ARC
8
back_labelLayer
10
55.977522
20
301.7630073
40
6.2125618
50
253.1382394
51
266.8483062
0
ARC
8
back_labelLayer
10
56.1793516
20
304.1432821
40
8.600623
50
266.3775934
51
270.0510302
0
ARC
8
back_labelLayer
10
56.24407
20
300.8745479
40
5.3321907
50
269.3868819
51
285.8630762
0
ARC
8
back_labelLayer
10
56.6402173
20
299.4428199
40
3.8467173
50
286.0162926
51
326.8497269
0
ARC
8
back_labelLayer
10
54.7282013
20
300.7094607
40
6.140196
50
326.7104976
51
343.666179
0
ARC
8
back_labelLayer
10
51.149031
20
301.8031408
40
9.8825815
50
343.4171289
51
353.6369258
0
ARC
8
back_labelLayer
10
45.7429805
20
302.4446066
40
15.326469
50
353.4934852
51
0.2205387
0
ARC
8
back_labelLayer
10
45.2664995
20
302.5675681
40
15.8029659
50
359.7680745
51
6.3095232
0
ARC
8
back_labelLayer
10
51.2191328
20
303.250668
40
9.8113482
50
6.1648685
51
16.0396319
0
ARC
8
back_labelLayer
10
55.0537578
20
304.3807299
40
5.8138241
50
15.7779378
51
32.0151314
0
ARC
8
back_labelLayer
10
56.2492878
20
305.065343
40
4.4375018
50
32.7035113
51
35.524163
0
ARC
8
back_labelLayer
10
56.6868622
20
305.3763455
40
3.9006663
50
35.5408375
51
79.8011216
0
ARC
8
back_labelLayer
10
56.1630436
20
303.1494954
40
6.1862683
50
78.6781204
51
90.3749652
0
LINE
8
back_labelLayer
10
81.355957
20
293.625182
11
79.3740234
21
293.625182
0
LINE
8
back_labelLayer
10
79.3740234
20
293.625182
11
78.8422852
21
296.1388539
0
LINE
8
back_labelLayer
10
78.8422852
20
296.1388539
11
78.7133789
21
296.1388539
0
LINE
8
back_labelLayer
10
75.7485352
20
304.1149281
11
78.7456055
21
304.2116078
0
LINE
8
back_labelLayer
10
78.7456055
20
304.2116078
11
78.7456055
21
305.3073109
0
LINE
8
back_labelLayer
10
69.9960938
20
308.0143422
11
69.1743164
21
310.0607289
0
LINE
8
back_labelLayer
10
81.355957
20
305.6779164
11
81.355957
21
293.625182
0
LINE
8
back_labelLayer
10
78.6811523
20
300.7150258
11
78.6811523
21
302.3102406
0
LINE
8
back_labelLayer
10
78.6811523
20
302.3102406
11
76.0063477
21
302.1974477
0
ARC
8
back_labelLayer
10
70.0106322
20
303.0100958
40
11.0883618
50
314.744497
51
321.7071909
0
ARC
8
back_labelLayer
10
72.7348558
20
300.2420716
40
7.2046695
50
304.8485578
51
314.8530735
0
ARC
8
back_labelLayer
10
74.0435212
20
298.3793229
40
4.9282022
50
294.3932856
51
304.7371297
0
ARC
8
back_labelLayer
10
73.596432
20
299.5377722
40
6.1682975
50
281.2979492
51
293.7313691
0
ARC
8
back_labelLayer
10
73.0053946
20
302.4022388
40
9.093065
50
272.9334988
51
281.41391
0
ARC
8
back_labelLayer
10
72.8094871
20
305.3402415
40
12.037329
50
269.9539134
51
273.1490876
0
ARC
8
back_labelLayer
10
72.7418177
20
301.5113152
40
8.2086036
50
258.671963
51
270.4047508
0
ARC
8
back_labelLayer
10
72.1716373
20
298.7838094
40
5.4222852
50
238.3273168
51
258.9183744
0
ARC
8
back_labelLayer
10
71.7787115
20
298.0669611
40
4.6060826
50
227.7689335
51
237.8050063
0
ARC
8
back_labelLayer
10
71.6558093
20
297.8953924
40
4.3965081
50
192.0827635
51
227.4520781
0
ARC
8
back_labelLayer
10
73.9224757
20
298.4541462
40
6.7303043
50
179.5457358
51
192.6949245
0
ARC
8
back_labelLayer
10
71.8167605
20
298.6978335
40
4.6282927
50
115.4904621
51
182.3568143
0
ARC
8
back_labelLayer
10
74.1346604
20
294.4463276
40
9.4671198
50
101.356818
51
117.0798624
0
ARC
8
back_labelLayer
10
75.996148
20
285.7474352
40
18.36259
50
92.4696273
51
101.7064958
0
ARC
8
back_labelLayer
10
76.5311479
20
277.9988934
40
26.1277582
50
91.7164548
51
92.9095728
0
ARC
8
back_labelLayer
10
71.0630364
20
305.3484315
40
7.6826792
50
359.6933302
51
8.0035762
0
ARC
8
back_labelLayer
10
73.9692397
20
305.7718039
40
4.7458583
50
7.8272706
51
20.6041698
0
ARC
8
back_labelLayer
10
75.6138154
20
306.4009361
40
2.9850992
50
20.4094111
51
41.4479534
0
ARC
8
back_labelLayer
10
75.8568031
20
306.5345002
40
2.7152339
50
42.7295441
51
71.0380378
0
ARC
8
back_labelLayer
10
75.28473
20
304.9790236
40
4.3723363
50
70.5716278
51
83.9928582
0
ARC
8
back_labelLayer
10
75.011432
20
302.7590562
40
6.6088327
50
83.6506481
51
90.1753083
0
ARC
8
back_labelLayer
10
75.0593742
20
300.6595372
40
8.7085874
50
90.4484661
51
103.7665451
0
ARC
8
back_labelLayer
10
76.0834514
20
296.3409572
40
13.1468466
50
103.6226487
51
112.4320088
0
ARC
8
back_labelLayer
10
77.8388285
20
291.9087525
40
17.9136403
50
112.2122179
51
115.9641056
0
ARC
8
back_labelLayer
10
75.0277237
20
299.2056548
40
12.3326806
50
106.3568616
51
118.3349828
0
ARC
8
back_labelLayer
10
75.5530866
20
297.5827836
40
14.0378993
50
104.5162463
51
106.5489703
0
ARC
8
back_labelLayer
10
75.1677899
20
299.1880569
40
12.3873301
50
90.071444
51
104.6521036
0
ARC
8
back_labelLayer
10
75.216403
20
300.2786265
40
11.2969325
50
81.5679912
51
90.3248974
0
ARC
8
back_labelLayer
10
75.8695749
20
304.5338782
40
6.9919343
50
68.2273419
51
81.7494167
0
ARC
8
back_labelLayer
10
76.7793362
20
306.7974418
40
4.5523969
50
47.8683121
51
68.2934176
0
ARC
8
back_labelLayer
10
76.9269919
20
307.0922625
40
4.2356235
50
19.2330979
51
46.6741274
0
ARC
8
back_labelLayer
10
74.4672824
20
306.1772462
40
6.8596748
50
6.3379081
51
19.6815312
0
ARC
8
back_labelLayer
10
70.8312263
20
305.7141642
40
10.524793
50
359.8026706
51
6.6583397
0
ARC
8
back_labelLayer
10
73.3856298
20
302.8747522
40
7.3645148
50
269.5792019
51
282.0413573
0
ARC
8
back_labelLayer
10
73.9228181
20
300.4920059
40
4.9222096
50
281.7121028
51
306.4593932
0
ARC
8
back_labelLayer
10
74.1610166
20
300.1002763
40
4.4657903
50
306.9881038
51
313.8559182
0
ARC
8
back_labelLayer
10
74.1326795
20
300.0921594
40
4.4796462
50
314.189198
51
347.4269841
0
ARC
8
back_labelLayer
10
71.8887076
20
300.6544886
40
6.7924844
50
346.9177607
51
0.2824557
0
ARC
8
back_labelLayer
10
70.1425554
20
300.7150723
40
8.5385969
50
359.8181638
51
359.9996879
0
ARC
8
back_labelLayer
10
76.6426125
20
282.5676469
40
19.6401098
50
91.8564901
51
96.4478263
0
ARC
8
back_labelLayer
10
75.756899
20
290.2320067
40
11.9247823
50
96.3545394
51
102.9953146
0
ARC
8
back_labelLayer
10
74.5546115
20
295.3401702
40
6.6771255
50
102.7995383
51
113.2433185
0
ARC
8
back_labelLayer
10
73.5634738
20
297.7105849
40
4.1080356
50
113.5886332
51
121.6805224
0
ARC
8
back_labelLayer
10
72.8748759
20
298.7592988
40
2.8541688
50
120.9734097
51
172.4179854
0
ARC
8
back_labelLayer
10
74.2208128
20
298.4904561
40
4.2247463
50
171.2122094
51
180.205822
0
ARC
8
back_labelLayer
10
73.8185638
20
298.4436958
40
3.8226006
50
179.5265929
51
192.7787378
0
ARC
8
back_labelLayer
10
72.5254469
20
298.1302377
40
2.4922573
50
192.3264377
51
222.0579858
0
ARC
8
back_labelLayer
10
72.4292728
20
298.0727279
40
2.3824253
50
222.5804923
51
229.2546357
0
ARC
8
back_labelLayer
10
72.7542903
20
298.491183
40
2.9117167
50
229.7836972
51
254.2724155
0
ARC
8
back_labelLayer
10
73.1871813
20
299.9337507
40
4.4176921
50
253.9396622
51
266.4533852
0
ARC
8
back_labelLayer
10
73.3253434
20
301.526217
40
6.0157843
50
266.0782552
51
270.0590458
0
LINE
8
back_labelLayer
10
98.6455078
20
310.6891469
11
97.8237305
21
308.4171742
0
LINE
8
back_labelLayer
10
98.3876953
20
296.5900258
11
98.3876953
21
294.2213734
0
ARC
8
back_labelLayer
10
93.8390011
20
303.2993703
40
9.996818
50
256.4243744
51
270.4889824
0
ARC
8
back_labelLayer
10
93.0401615
20
300.1815665
40
6.7787594
50
221.797632
51
256.8020495
0
ARC
8
back_labelLayer
10
93.8137498
20
300.7531399
40
7.7369445
50
196.0166691
51
221.1349162
0
ARC
8
back_labelLayer
10
97.7017283
20
301.941504
40
11.8020916
50
183.5913803
51
196.3539482
0
ARC
8
back_labelLayer
10
102.0570808
20
302.3252038
40
16.1733009
50
179.9388424
51
183.9815151
0
ARC
8
back_labelLayer
10
100.6419962
20
302.4374882
40
14.758513
50
169.897838
51
180.368895
0
ARC
8
back_labelLayer
10
95.5042244
20
303.3879011
40
9.5337506
50
153.0875091
51
170.1051347
0
ARC
8
back_labelLayer
10
93.5548481
20
304.3193664
40
7.3740675
50
138.6550107
51
152.6853516
0
ARC
8
back_labelLayer
10
93.1910111
20
304.584507
40
6.925892
50
101.4912896
51
138.313393
0
ARC
8
back_labelLayer
10
94.02628
20
301.1082065
40
10.4996673
50
89.5891865
51
102.1787736
0
ARC
8
back_labelLayer
10
94.0905111
20
299.5369888
40
12.0706202
50
77.7702358
51
89.947542
0
ARC
8
back_labelLayer
10
93.8620321
20
298.2765122
40
13.3509623
50
74.6797024
51
77.9578439
0
ARC
8
back_labelLayer
10
95.0961832
20
302.7476108
40
8.7126729
50
70.0945419
51
74.7386514
0
ARC
8
back_labelLayer
10
96.2700465
20
305.9645656
40
5.2882554
50
63.5033772
51
70.1861791
0
ARC
8
back_labelLayer
10
96.8343575
20
307.145574
40
3.9795947
50
62.9280363
51
63.1885769
0
ARC
8
back_labelLayer
10
93.4297168
20
297.3589688
40
11.8992127
50
68.3294412
51
74.8831336
0
ARC
8
back_labelLayer
10
92.8020271
20
295.133311
40
14.2115709
50
74.7801552
51
77.4497692
0
ARC
8
back_labelLayer
10
93.461059
20
298.2267572
40
11.0488731
50
77.2998675
51
81.7345396
0
ARC
8
back_labelLayer
10
93.9417657
20
301.5763834
40
7.6649366
50
81.6909774
51
87.507931
0
ARC
8
back_labelLayer
10
94.0345003
20
303.3094499
40
5.9295022
50
87.6750138
51
89.9747891
0
ARC
8
back_labelLayer
10
93.9045111
20
303.3073252
40
5.9331082
50
88.7193972
51
112.5667674
0
ARC
8
back_labelLayer
10
93.4829242
20
304.7012013
40
4.4865323
50
114.4265768
51
161.6632804
0
ARC
8
back_labelLayer
10
97.6709804
20
303.0619519
40
8.9808115
50
160.141845
51
175.1368127
0
ARC
8
back_labelLayer
10
103.435248
20
302.4146664
40
14.7800285
50
174.5309741
51
180.154957
0
ARC
8
back_labelLayer
10
101.6090988
20
302.3078025
40
12.9539981
50
179.7041374
51
188.0743628
0
ARC
8
back_labelLayer
10
96.9432198
20
301.625136
40
8.2385133
50
187.9315294
51
200.3885424
0
ARC
8
back_labelLayer
10
94.4203435
20
300.6905393
40
5.5480927
50
200.4183414
51
216.639268
0
ARC
8
back_labelLayer
10
93.3626929
20
299.9344515
40
4.248281
50
216.9695348
51
261.3103068
0
ARC
8
back_labelLayer
10
93.8294545
20
302.1105664
40
6.4712955
50
260.1359423
51
270.2692349
0
ARC
8
back_labelLayer
10
93.8079115
20
306.8362711
40
11.1970495
50
270.2658405
51
286.2891479
0
ARC
8
back_labelLayer
10
93.1272225
20
309.3747992
40
13.8247246
50
286.0460601
51
292.3653975
0
ARC
8
back_labelLayer
10
94.9400054
20
301.0038026
40
7.6084106
50
282.0344311
51
296.9454465
0
ARC
8
back_labelLayer
10
94.1575286
20
304.5301255
40
11.2204198
50
272.5980562
51
282.187845
0
ARC
8
back_labelLayer
10
93.9331427
20
307.9714507
40
14.6685371
50
269.9655242
51
272.8643045
0
LINE
8
back_labelLayer
10
105.0908203
20
302.6647328
11
105.2197266
21
302.6647328
0
LINE
8
back_labelLayer
10
107.3305664
20
305.2428578
11
113.034668
21
311.2853383
0
LINE
8
back_labelLayer
10
113.034668
20
311.2853383
11
116.2089844
21
311.2853383
0
LINE
8
back_labelLayer
10
116.2089844
20
311.2853383
11
109.0546875
21
303.7604359
0
LINE
8
back_labelLayer
10
109.0546875
20
303.7604359
11
116.7084961
21
293.625182
0
LINE
8
back_labelLayer
10
116.7084961
20
293.625182
11
113.4697266
21
293.625182
0
LINE
8
back_labelLayer
10
113.4697266
20
293.625182
11
107.2338867
21
301.9718617
0
LINE
8
back_labelLayer
10
107.2338867
20
301.9718617
11
105.2197266
21
300.2316273
0
LINE
8
back_labelLayer
10
105.2197266
20
300.2316273
11
105.2197266
21
293.625182
0
LINE
8
back_labelLayer
10
105.2197266
20
293.625182
11
102.5771484
21
293.625182
0
LINE
8
back_labelLayer
10
102.5771484
20
293.625182
11
102.5771484
21
318.6974477
0
LINE
8
back_labelLayer
10
102.5771484
20
318.6974477
11
105.2197266
21
318.6974477
0
LINE
8
back_labelLayer
10
105.2197266
20
318.6974477
11
105.2197266
21
305.4039906
0
ARC
8
back_labelLayer
10
118.1439949
20
293.5163932
40
15.8344191
50
142.3233734
51
144.7075378
0
ARC
8
back_labelLayer
10
126.5766717
20
287.0120717
40
26.484124
50
140.4331352
51
142.3365554
0
ARC
8
back_labelLayer
10
137.5652319
20
277.9665247
40
40.7168301
50
139.2798934
51
140.4703228
0
ARC
8
back_labelLayer
10
150.2695097
20
267.0417449
40
57.4724097
50
138.3417502
51
139.2877377
0
ARC
8
back_labelLayer
10
87.3946534
20
305.4373559
40
17.8251044
50
358.2739477
51
359.8927529
0
ARC
8
back_labelLayer
10
73.5293577
20
305.8237497
40
31.6957629
50
357.50414
51
358.330735
0
ARC
8
back_labelLayer
10
52.7723611
20
306.7405513
40
52.4729944
50
356.6325254
51
357.4910122
0
ARC
8
back_labelLayer
10
18.272156
20
308.7527258
40
87.0318254
50
356.0329329
51
356.6442642
0
ARC
8
back_labelLayer
10
-4.9983923
20
310.3234777
40
110.3552948
50
356.0204285
51
356.0552269
0
LINE
8
right_outsideCutPath
10
168
20
406
11
168
21
206
0
LINE
8
right_outsideCutPath
10
168
20
206
11
234
21
206
0
LINE
8
right_outsideCutPath
10
234
20
206
11
234
21
406
0
LINE
8
right_outsideCutPath
10
234
20
406
11
168
21
406
0
LINE
8
right_labelLayer
10
191.4125976
20
309.6867577
11
191.2643555
21
308.6941796
0
LINE
8
right_labelLayer
10
188.4155273
20
306.3609765
11
188.4155273
21
302.5711327
0
LINE
8
right_labelLayer
10
188.4155273
20
302.5711327
11
187.3456055
21
302.5711327
0
LINE
8
right_labelLayer
10
187.3456055
20
302.5711327
11
187.3456055
21
309.6351952
0
LINE
8
right_labelLayer
10
187.3456055
20
309.6351952
11
188.2286133
21
309.6351952
0
LINE
8
right_labelLayer
10
188.2286133
20
309.6351952
11
188.3510742
21
308.3267968
0
LINE
8
right_labelLayer
10
188.3510742
20
308.3267968
11
188.4026367
21
308.3267968
0
ARC
8
right_labelLayer
10
190.5792416
20
304.8522728
40
4.911841
50
84.9922651
51
90.1280785
0
ARC
8
right_labelLayer
10
190.6972015
20
306.1738542
40
3.5850082
50
78.4892271
51
85.0266023
0
ARC
8
right_labelLayer
10
190.2393637
20
304.0915184
40
4.7154107
50
77.4453564
51
81.63603
0
ARC
8
right_labelLayer
10
190.4448075
20
305.5076317
40
3.2844762
50
81.5883987
51
87.1916634
0
ARC
8
right_labelLayer
10
190.4894279
20
306.2813274
40
2.5095323
50
87.34371
51
89.9659807
0
ARC
8
right_labelLayer
10
190.4790607
20
306.9370393
40
1.8538579
50
89.6335357
51
137.0880775
0
ARC
8
right_labelLayer
10
190.9340155
20
306.4254268
40
2.536242
50
135.6208907
51
138.8377349
0
ARC
8
right_labelLayer
10
190.8673648
20
306.4904859
40
2.443248
50
138.9575811
51
174.5422195
0
ARC
8
right_labelLayer
10
191.6630443
20
306.3659818
40
3.2475208
50
173.6907253
51
180.0883081
0
ARC
8
right_labelLayer
10
191.5505766
20
306.5532611
40
3.6131641
50
139.413931
51
150.603279
0
ARC
8
right_labelLayer
10
190.9027326
20
307.1083954
40
2.7600076
50
124.2321471
51
139.4161064
0
ARC
8
right_labelLayer
10
190.5563371
20
307.6312775
40
2.1328572
50
89.6796617
51
124.4405587
0
LINE
8
right_labelLayer
10
193.8038086
20
309.6351952
11
193.8038086
21
302.5711327
0
LINE
8
right_labelLayer
10
193.8038086
20
302.5711327
11
192.7338867
21
302.5711327
0
LINE
8
right_labelLayer
10
192.7338867
20
302.5711327
11
192.7338867
21
309.6351952
0
LINE
8
right_labelLayer
10
192.7338867
20
309.6351952
11
193.8038086
21
309.6351952
0
ARC
8
right_labelLayer
10
193.8292191
20
311.5567893
40
1.1855894
50
170.8451505
51
180.3545392
0
ARC
8
right_labelLayer
10
193.3853915
20
311.6309997
40
0.735613
50
155.9678972
51
171.0516138
0
ARC
8
right_labelLayer
10
193.1704174
20
311.7263713
40
0.5004336
50
133.7880452
51
155.9171383
0
ARC
8
right_labelLayer
10
193.2497852
20
311.6386255
40
0.618709
50
92.6446375
51
133.4710117
0
ARC
8
right_labelLayer
10
193.2748517
20
311.4418222
40
0.8166153
50
89.9690382
51
93.7644372
0
ARC
8
right_labelLayer
10
193.2850619
20
311.628129
40
0.6303841
50
46.370819
51
90.8879332
0
ARC
8
right_labelLayer
10
193.3477985
20
311.6928969
40
0.5402167
50
17.7252323
51
46.4472859
0
ARC
8
right_labelLayer
10
193.0552358
20
311.5921496
40
0.8495915
50
4.9428074
51
18.1901022
0
ARC
8
right_labelLayer
10
192.6830741
20
311.5519164
40
1.223862
50
359.8846768
51
5.3181621
0
ARC
8
right_labelLayer
10
192.7999617
20
311.5419356
40
1.1069974
50
349.8345137
51
0.3890867
0
ARC
8
right_labelLayer
10
193.2029767
20
311.466754
40
0.6970458
50
332.6322002
51
350.0706316
0
ARC
8
right_labelLayer
10
193.359832
20
311.3893005
40
0.5221518
50
313.6153739
51
332.2676774
0
ARC
8
right_labelLayer
10
193.2842381
20
311.4581314
40
0.6241723
50
269.1788544
51
314.280759
0
ARC
8
right_labelLayer
10
193.2682016
20
311.5136209
40
0.6796346
50
250.5000614
51
270.5978368
0
ARC
8
right_labelLayer
10
193.2476348
20
311.4367111
40
0.6003037
50
225.1301196
51
249.9001064
0
ARC
8
right_labelLayer
10
193.2154336
20
311.4011383
40
0.5523796
50
197.7934098
51
224.8941154
0
ARC
8
right_labelLayer
10
193.5168294
20
311.5044236
40
0.870943
50
184.9925981
51
198.2040724
0
ARC
8
right_labelLayer
10
193.9068335
20
311.5468176
40
1.2631839
50
179.8804611
51
185.3687206
0
LINE
8
right_labelLayer
10
199.4112305
20
309.6351952
11
201.8540039
21
309.6351952
0
LINE
8
right_labelLayer
10
201.8540039
20
309.6351952
11
201.8540039
21
308.9584374
0
LINE
8
right_labelLayer
10
201.8540039
20
308.9584374
11
200.5456055
21
308.8037499
0
LINE
8
right_labelLayer
10
198.1350586
20
303.6926171
11
199.3854492
21
303.6926171
0
LINE
8
right_labelLayer
10
199.0438476
20
302.7322655
11
197.7612305
21
302.7322655
0
ARC
8
right_labelLayer
10
199.1821518
20
307.724728
40
1.7387622
50
29.4584676
51
38.357696
0
ARC
8
right_labelLayer
10
198.4716522
20
307.3191326
40
2.5568744
50
23.1845307
51
29.5422431
0
ARC
8
right_labelLayer
10
197.7940046
20
307.0186099
40
3.2981239
50
21.250528
51
23.3490005
0
ARC
8
right_labelLayer
10
198.946033
20
307.4767739
40
2.0583901
50
6.8505034
51
20.9871469
0
ARC
8
right_labelLayer
10
198.3663507
20
307.398176
40
2.643324
50
359.8710388
51
7.0432586
0
ARC
8
right_labelLayer
10
198.5570595
20
307.3667224
40
2.452741
50
342.5649606
51
0.5957823
0
ARC
8
right_labelLayer
10
199.0094133
20
307.2418108
40
1.9838106
50
310.6097982
51
342.0923558
0
ARC
8
right_labelLayer
10
198.7557489
20
307.5368698
40
2.3729188
50
284.931568
51
310.6222733
0
ARC
8
right_labelLayer
10
198.4383119
20
308.649214
40
3.5295537
50
272.5335114
51
285.2579564
0
ARC
8
right_labelLayer
10
198.3566979
20
309.76405
40
4.6470195
50
269.9691924
51
272.9311971
0
ARC
8
right_labelLayer
10
198.3465707
20
308.5556027
40
3.43858
50
263.4836866
51
270.1271115
0
ARC
8
right_labelLayer
10
198.2905614
20
308.0235978
40
2.9036598
50
259.4963677
51
263.3903976
0
ARC
8
right_labelLayer
10
198.6372122
20
303.4781884
40
1.9038944
50
117.3935566
51
128.4095169
0
ARC
8
right_labelLayer
10
198.1470693
20
304.0862471
40
1.1229283
50
128.0881836
51
147.1400726
0
ARC
8
right_labelLayer
10
197.8830147
20
304.263447
40
0.8049956
50
147.5368922
51
180.2592487
0
ARC
8
right_labelLayer
10
197.6325082
20
304.2529509
40
0.5545232
50
179.2918258
51
198.3581591
0
ARC
8
right_labelLayer
10
197.5286884
20
304.2256654
40
0.4474452
50
199.229179
51
239.5690597
0
ARC
8
right_labelLayer
10
197.6147065
20
304.3445052
40
0.5936463
50
238.2200369
51
239.8461425
0
ARC
8
right_labelLayer
10
197.683453
20
304.4858988
40
0.7505288
50
240.7303317
51
254.5026579
0
ARC
8
right_labelLayer
10
197.8882945
20
305.1917804
40
1.485505
50
254.1637425
51
262.2122631
0
ARC
8
right_labelLayer
10
198.0505528
20
306.3251185
40
2.6303865
50
262.0556387
51
267.2082409
0
ARC
8
right_labelLayer
10
198.1289267
20
307.7626478
40
4.0700354
50
267.0918991
51
270.0863217
0
ARC
8
right_labelLayer
10
199.4088361
20
299.3130286
40
4.3796509
50
81.5744256
51
90.3059553
0
ARC
8
right_labelLayer
10
199.6490703
20
300.8797883
40
2.7946128
50
68.3671659
51
81.73993
0
ARC
8
right_labelLayer
10
199.9628432
20
301.6816767
40
1.9335343
50
52.1879189
51
68.2501305
0
ARC
8
right_labelLayer
10
200.1823892
20
301.9774983
40
1.5652498
50
8.6201376
51
51.8982483
0
ARC
8
right_labelLayer
10
199.4129129
20
301.8146829
40
2.3508803
50
359.7430602
51
9.7326669
0
ARC
8
right_labelLayer
10
199.4473693
20
301.7750239
40
2.3165833
50
340.5268658
51
0.7201558
0
ARC
8
right_labelLayer
10
199.7877296
20
301.690278
40
1.9677273
50
302.9903725
51
339.5494559
0
ARC
8
right_labelLayer
10
199.4302504
20
302.1445753
40
2.5439626
50
303.187166
51
304.1723328
0
ARC
8
right_labelLayer
10
199.0974528
20
302.7208268
40
3.2085975
50
286.2542184
51
302.5280129
0
ARC
8
right_labelLayer
10
198.4914766
20
304.719619
40
5.2971559
50
276.4939808
51
286.495354
0
ARC
8
right_labelLayer
10
198.1133853
20
307.8802323
40
8.4802713
50
269.7545103
51
276.6169718
0
ARC
8
right_labelLayer
10
198.0488151
20
305.3944634
40
5.9944909
50
262.5634618
51
270.2698797
0
ARC
8
right_labelLayer
10
197.7552126
20
303.2183106
40
3.7986538
50
251.2101983
51
262.7064188
0
ARC
8
right_labelLayer
10
197.3320389
20
301.976234
40
2.4864685
50
235.9668138
51
251.2229175
0
ARC
8
right_labelLayer
10
196.8835118
20
301.3363611
40
1.7052226
50
208.9036047
51
236.4231402
0
ARC
8
right_labelLayer
10
196.9246884
20
301.3191012
40
1.7332815
50
182.2079884
51
207.7461582
0
ARC
8
right_labelLayer
10
197.4489235
20
301.3714583
40
2.2593729
50
179.9785379
51
183.0225739
0
ARC
8
right_labelLayer
10
196.825261
20
301.4010064
40
1.635962
50
138.3916089
51
181.0052668
0
ARC
8
right_labelLayer
10
196.99802
20
301.2457484
40
1.8682315
50
113.81213
51
138.3496425
0
ARC
8
right_labelLayer
10
197.3257254
20
300.5380943
40
2.6479909
50
102.2870629
51
114.1172552
0
ARC
8
right_labelLayer
10
197.2227527
20
304.1358597
40
1.1104374
50
216.586123
51
245.4968935
0
ARC
8
right_labelLayer
10
197.3813293
20
304.2704319
40
1.3180471
50
215.4644968
51
217.1747162
0
ARC
8
right_labelLayer
10
197.1169405
20
304.0794788
40
0.9919207
50
182.1767578
51
215.3415426
0
ARC
8
right_labelLayer
10
197.3527379
20
304.1047673
40
1.2286168
50
179.9836888
51
182.9375784
0
ARC
8
right_labelLayer
10
197.3475951
20
304.115459
40
1.2235177
50
161.7225829
51
180.4843049
0
ARC
8
right_labelLayer
10
197.2130659
20
304.1521688
40
1.0842877
50
144.4962989
51
161.3350864
0
ARC
8
right_labelLayer
10
197.5716675
20
303.8849084
40
1.5314587
50
132.7259008
51
144.1479514
0
ARC
8
right_labelLayer
10
198.1463876
20
303.2711765
40
2.372261
50
125.221226
51
132.8655473
0
ARC
8
right_labelLayer
10
198.7241974
20
302.468817
40
3.3609897
50
121.2352085
51
125.379461
0
ARC
8
right_labelLayer
10
197.6998935
20
307.075184
40
1.8756589
50
215.1640807
51
247.4747955
0
ARC
8
right_labelLayer
10
198.0500408
20
307.3577647
40
2.3248355
50
212.4714321
51
215.8875458
0
ARC
8
right_labelLayer
10
197.9579466
20
307.2918779
40
2.2117747
50
183.0160764
51
212.3123105
0
ARC
8
right_labelLayer
10
198.443258
20
307.345976
40
2.6994107
50
179.9759458
51
183.6207521
0
ARC
8
right_labelLayer
10
198.8349238
20
307.373217
40
3.0911864
50
166.8195655
51
180.4839187
0
ARC
8
right_labelLayer
10
197.8094532
20
307.6321272
40
2.0337759
50
132.3287733
51
167.3340936
0
ARC
8
right_labelLayer
10
197.9466486
20
307.4349203
40
2.2721712
50
106.2189113
51
131.5377547
0
ARC
8
right_labelLayer
10
198.2937742
20
306.3109561
40
3.4484128
50
93.6329807
51
106.5408846
0
ARC
8
right_labelLayer
10
198.4070932
20
305.0387618
40
4.7253424
50
89.9379939
51
94.0267949
0
ARC
8
right_labelLayer
10
198.4254468
20
305.6630777
40
4.1010451
50
82.5851933
51
90.1849733
0
ARC
8
right_labelLayer
10
198.5507573
20
306.6326106
40
3.1234482
50
74.0088891
51
82.5694655
0
ARC
8
right_labelLayer
10
197.2952621
20
301.3705815
40
1.0745607
50
179.2207697
51
200.9355303
0
ARC
8
right_labelLayer
10
197.1674748
20
301.3409928
40
0.9448089
50
202.0286996
51
236.1457474
0
ARC
8
right_labelLayer
10
197.3599905
20
301.5854126
40
1.2552603
50
235.0632601
51
238.5043035
0
ARC
8
right_labelLayer
10
197.5839579
20
301.9854332
40
1.7134526
50
239.10662
51
254.4862781
0
ARC
8
right_labelLayer
10
197.8824746
20
303.0147084
40
2.7850989
50
254.2323892
51
263.4937204
0
ARC
8
right_labelLayer
10
198.0699848
20
304.6028895
40
4.3843029
50
263.4108357
51
270.1457733
0
ARC
8
right_labelLayer
10
198.0899364
20
305.5925697
40
5.3739762
50
269.9062092
51
270.0000532
0
ARC
8
right_labelLayer
10
198.1155811
20
307.4111539
40
7.192606
50
269.7957559
51
275.3990907
0
ARC
8
right_labelLayer
10
198.384779
20
304.6475543
40
4.4159448
50
275.2956874
51
283.3516091
0
ARC
8
right_labelLayer
10
198.8233548
20
302.8411496
40
2.5571042
50
283.1370557
51
295.8573147
0
ARC
8
right_labelLayer
10
199.1483138
20
302.1317185
40
1.7770556
50
296.4047973
51
301.8008369
0
ARC
8
right_labelLayer
10
199.2757369
20
301.9560783
40
1.560713
50
301.2230605
51
318.6238054
0
ARC
8
right_labelLayer
10
199.5631092
20
301.6906211
40
1.1696421
50
319.0765436
51
1.140711
0
ARC
8
right_labelLayer
10
199.2849931
20
301.7253736
40
1.4475718
50
359.5461045
51
10.9905029
0
ARC
8
right_labelLayer
10
199.84414
20
301.8391046
40
0.8770126
50
10.6608634
51
30.936205
0
ARC
8
right_labelLayer
10
200.0214239
20
301.937491
40
0.674404
50
31.5095641
51
58.0777245
0
ARC
8
right_labelLayer
10
199.8552643
20
301.6399734
40
1.0149174
50
58.9972385
51
73.8586304
0
ARC
8
right_labelLayer
10
199.5194188
20
300.5405209
40
2.1644623
50
73.4099651
51
81.5907456
0
ARC
8
right_labelLayer
10
199.2348547
20
298.6990194
40
4.0277993
50
81.4172222
51
86.5756799
0
ARC
8
right_labelLayer
10
199.0604727
20
295.924546
40
6.80774
50
86.5053952
51
90.1399213
0
ARC
8
right_labelLayer
10
197.7459283
20
300.2728723
40
2.4594409
50
89.6435143
51
100.0209019
0
ARC
8
right_labelLayer
10
197.5913489
20
301.1137775
40
1.604477
50
99.8103048
51
116.8229762
0
ARC
8
right_labelLayer
10
197.4407734
20
301.4313205
40
1.2531869
50
117.2304514
51
130.5022956
0
ARC
8
right_labelLayer
10
197.3634587
20
301.5306889
40
1.1274295
50
130.7944655
51
169.0413473
0
ARC
8
right_labelLayer
10
197.9327824
20
301.3966113
40
1.7120195
50
168.258069
51
180.3820629
0
ARC
8
right_labelLayer
10
198.8892889
20
307.3569175
40
2.0884711
50
179.5617877
51
191.6528704
0
ARC
8
right_labelLayer
10
198.1631478
20
307.2000338
40
1.3456267
50
191.3555382
51
213.3660094
0
ARC
8
right_labelLayer
10
197.988753
20
307.0993343
40
1.1446543
50
213.9573159
51
227.7972354
0
ARC
8
right_labelLayer
10
198.1404792
20
307.2833503
40
1.3829369
50
228.2620659
51
254.734122
0
ARC
8
right_labelLayer
10
198.3343058
20
307.9477959
40
2.0750062
50
254.4016747
51
267.4348539
0
ARC
8
right_labelLayer
10
198.384869
20
308.6257903
40
2.754658
50
267.015351
51
270.0323809
0
ARC
8
right_labelLayer
10
198.4179259
20
308.2017956
40
2.3308758
50
269.2256641
51
284.3773198
0
ARC
8
right_labelLayer
10
198.7356204
20
307.0949453
40
1.1802635
50
282.7796594
51
346.48285
0
ARC
8
right_labelLayer
10
197.7857903
20
307.3639904
40
2.1670304
50
345.4362358
51
0.7465755
0
ARC
8
right_labelLayer
10
197.6522829
20
307.4251254
40
2.300589
50
359.1806298
51
15.0431794
0
ARC
8
right_labelLayer
10
198.6947202
20
307.7292158
40
1.2151696
50
13.9535592
51
77.6673892
0
ARC
8
right_labelLayer
10
198.3956333
20
306.6574111
40
2.3269825
50
76.1095325
51
90.7028249
0
ARC
8
right_labelLayer
10
198.3508658
20
306.7392838
40
2.2449935
50
89.5859332
51
101.3334313
0
ARC
8
right_labelLayer
10
198.1904302
20
307.5044853
40
1.4632013
50
101.0620276
51
121.9739081
0
ARC
8
right_labelLayer
10
198.0776785
20
307.7073183
40
1.2314905
50
122.5210891
51
134.9966859
0
ARC
8
right_labelLayer
10
198.1241011
20
307.6795045
40
1.2840503
50
135.5839719
51
163.0016124
0
ARC
8
right_labelLayer
10
198.8021775
20
307.4572547
40
1.9975284
50
162.5912027
51
175.734331
0
ARC
8
right_labelLayer
10
199.6154716
20
307.377137
40
2.8145958
50
175.3393668
51
180.0864432
0
LINE
8
right_labelLayer
10
209.2081055
20
302.5711327
11
208.1381836
21
302.5711327
0
LINE
8
right_labelLayer
10
208.1381836
20
302.5711327
11
208.1381836
21
307.1408593
0
LINE
8
right_labelLayer
10
204.3741211
20
306.2642968
11
204.3741211
21
302.5711327
0
LINE
8
right_labelLayer
10
204.3741211
20
302.5711327
11
203.3041992
21
302.5711327
0
LINE
8
right_labelLayer
10
203.3041992
20
302.5711327
11
203.3041992
21
312.600039
0
LINE
8
right_labelLayer
10
203.3041992
20
312.600039
11
204.3741211
21
312.600039
0
LINE
8
right_labelLayer
10
204.3741211
20
312.600039
11
204.3741211
21
309.5642968
0
LINE
8
right_labelLayer
10
204.3225586
20
308.6555077
11
204.3870117
21
308.6555077
0
LINE
8
right_labelLayer
10
209.2081055
20
307.1795311
11
209.2081055
21
302.5711327
0
ARC
8
right_labelLayer
10
205.1138478
20
307.1582051
40
3.0243856
50
359.6713885
51
8.6877441
0
ARC
8
right_labelLayer
10
206.2347622
20
307.335976
40
1.8894909
50
8.4931336
51
22.6579868
0
ARC
8
right_labelLayer
10
206.8042688
20
307.5726449
40
1.272767
50
22.7024535
51
42.3419383
0
ARC
8
right_labelLayer
10
206.8682872
20
307.6014436
40
1.2062486
50
43.3790754
51
71.5386255
0
ARC
8
right_labelLayer
10
206.6289006
20
306.9325359
40
1.9165986
50
71.0828106
51
84.369117
0
ARC
8
right_labelLayer
10
206.5214414
20
306.018873
40
2.8364493
50
84.0198048
51
90.1510256
0
ARC
8
right_labelLayer
10
206.4909054
20
305.6176672
40
3.2377273
50
89.5919293
51
100.3595371
0
ARC
8
right_labelLayer
10
206.2616445
20
306.8224565
40
2.0113706
50
100.106781
51
118.084738
0
ARC
8
right_labelLayer
10
206.0284697
20
307.2800045
40
1.4979557
50
118.4551482
51
139.6706063
0
ARC
8
right_labelLayer
10
206.2625633
20
307.1199987
40
1.7802115
50
140.6208292
51
160.5049037
0
ARC
8
right_labelLayer
10
207.4964913
20
306.6632013
40
3.0959009
50
160.1566906
51
171.5313071
0
ARC
8
right_labelLayer
10
209.4930477
20
306.3468714
40
5.1173082
50
171.3202535
51
178.3406865
0
ARC
8
right_labelLayer
10
211.2795866
20
306.2670639
40
6.905466
50
178.1080151
51
180.0229594
0
ARC
8
right_labelLayer
10
194.7492328
20
309.552824
40
9.6248951
50
357.8674535
51
0.0682962
0
ARC
8
right_labelLayer
10
198.0187593
20
309.4280988
40
6.3529925
50
354.9829236
51
357.8942864
0
ARC
8
right_labelLayer
10
200.1783976
20
309.2400492
40
4.1851832
50
351.9712909
51
354.9618818
0
ARC
8
right_labelLayer
10
206.1992786
20
307.5218715
40
2.1376254
50
119.831596
51
147.9725822
0
ARC
8
right_labelLayer
10
206.458132
20
307.1242184
40
2.6114902
50
116.6657953
51
120.4182688
0
ARC
8
right_labelLayer
10
206.5064537
20
306.9972833
40
2.7466451
50
96.6652655
51
116.378246
0
ARC
8
right_labelLayer
10
206.6105872
20
306.2788401
40
3.4723769
50
89.8927038
51
96.995953
0
ARC
8
right_labelLayer
10
206.643887
20
305.41046
40
4.3408335
50
80.6863073
51
90.3537049
0
ARC
8
right_labelLayer
10
206.9141784
20
307.000269
40
2.7282554
50
65.6022694
51
80.8844299
0
ARC
8
right_labelLayer
10
207.2387414
20
307.7312569
40
1.9284884
50
46.7401004
51
65.4130636
0
ARC
8
right_labelLayer
10
207.2608021
20
307.8009102
40
1.862914
50
19.2204207
51
45.7660629
0
ARC
8
right_labelLayer
10
206.1866303
20
307.4027059
40
3.008384
50
6.4733852
51
19.6467974
0
ARC
8
right_labelLayer
10
204.5815563
20
307.196125
40
4.6265787
50
359.794501
51
6.774383
0
LINE
8
right_labelLayer
10
214.6543945
20
303.4541405
11
214.6543945
21
302.6355858
0
LINE
8
right_labelLayer
10
211.4833008
20
304.6014061
11
211.4833008
21
308.8037499
0
LINE
8
right_labelLayer
10
211.4833008
20
308.8037499
11
210.4713867
21
308.8037499
0
LINE
8
right_labelLayer
10
210.4713867
20
308.8037499
11
210.4713867
21
309.3193749
0
LINE
8
right_labelLayer
10
210.4713867
20
309.3193749
11
211.4833008
21
309.7641015
0
LINE
8
right_labelLayer
10
211.4833008
20
309.7641015
11
211.9344726
21
311.2723046
0
LINE
8
right_labelLayer
10
211.9344726
20
311.2723046
11
212.5532226
21
311.2723046
0
LINE
8
right_labelLayer
10
212.5532226
20
311.2723046
11
212.5532226
21
309.6351952
0
LINE
8
right_labelLayer
10
212.5532226
20
309.6351952
11
214.602832
21
309.6351952
0
LINE
8
right_labelLayer
10
214.602832
20
309.6351952
11
214.602832
21
308.8037499
0
LINE
8
right_labelLayer
10
214.602832
20
308.8037499
11
212.5532226
21
308.8037499
0
LINE
8
right_labelLayer
10
212.5532226
20
308.8037499
11
212.5532226
21
304.6465233
0
ARC
8
right_labelLayer
10
213.6949338
20
306.8390121
40
3.5137855
50
269.8803761
51
278.302816
0
ARC
8
right_labelLayer
10
213.7282742
20
306.5665212
40
3.2393424
50
278.4152745
51
279.0077046
0
ARC
8
right_labelLayer
10
213.3339969
20
309.0851011
40
5.7885943
50
278.9590813
51
280.5103253
0
ARC
8
right_labelLayer
10
213.7098944
20
307.0681231
40
3.7368889
50
280.4847473
51
282.6269053
0
ARC
8
right_labelLayer
10
214.0393905
20
305.6043051
40
2.2364467
50
282.5875991
51
285.5794264
0
ARC
8
right_labelLayer
10
214.2051799
20
304.9946075
40
1.6046283
50
285.7240669
51
286.2571801
0
ARC
8
right_labelLayer
10
214.2045643
20
303.5870042
40
1.0523992
50
287.9888923
51
295.3047629
0
ARC
8
right_labelLayer
10
213.9507404
20
304.3549448
40
1.861194
50
283.3069561
51
288.1197571
0
ARC
8
right_labelLayer
10
213.6825708
20
305.4735875
40
3.0115282
50
280.007099
51
283.3734286
0
ARC
8
right_labelLayer
10
213.5033417
20
306.4461655
40
4.0004614
50
279.186246
51
280.1144784
0
ARC
8
right_labelLayer
10
213.3930789
20
307.0733572
40
4.63722
50
275.5260099
51
279.2940002
0
ARC
8
right_labelLayer
10
213.5171686
20
305.7772177
40
3.3351549
50
270.893237
51
275.5483794
0
ARC
8
right_labelLayer
10
213.5327594
20
305.1846447
40
2.7424183
50
270.0031494
51
270.7605472
0
ARC
8
right_labelLayer
10
213.4897355
20
305.2363709
40
2.794478
50
253.7847875
51
270.885254
0
ARC
8
right_labelLayer
10
213.158664
20
304.1072925
40
1.6178665
50
190.3817637
51
253.8772416
0
ARC
8
right_labelLayer
10
214.8461364
20
304.5635544
40
3.3630487
50
179.3551107
51
192.8477504
0
ARC
8
right_labelLayer
10
214.7076627
20
304.6330498
40
2.1544822
50
179.6416866
51
189.7505529
0
ARC
8
right_labelLayer
10
213.9470753
20
304.4973905
40
1.3819155
50
189.5479184
51
205.7873815
0
ARC
8
right_labelLayer
10
213.6345154
20
304.3532583
40
1.0377981
50
206.1294056
51
221.408409
0
ARC
8
right_labelLayer
10
213.5994714
20
304.3266676
40
0.9939322
50
221.5949245
51
262.3505174
0
ARC
8
right_labelLayer
10
213.6828238
20
304.7553038
40
1.4300775
50
261.3266514
51
270.1912627
0
LINE
8
bottom_outsideCutPath
10
237
20
162
11
237
21
84
0
LINE
8
bottom_outsideCutPath
10
237
20
84
11
402
21
84
0
LINE
8
bottom_outsideCutPath
10
402
20
84
11
402
21
162
0
LINE
8
bottom_outsideCutPath
10
402
20
162
11
237
21
162
0
LINE
8
bottom_labelLayer
10
295.1021115
20
118.2242205
11
295.0107053
21
118.2242205
0
LINE
8
bottom_labelLayer
10
295.0107053
20
118.2242205
11
294.7441037
21
117.1501971
0
LINE
8
bottom_labelLayer
10
294.7441037
20
117.1501971
11
293.8376584
21
117.1501971
0
LINE
8
bottom_labelLayer
10
293.8376584
20
117.1501971
11
293.8376584
21
129.0025408
0
LINE
8
bottom_labelLayer
10
293.8376584
20
129.0025408
11
295.1021115
21
129.0025408
0
LINE
8
bottom_labelLayer
10
295.1021115
20
129.0025408
11
295.1021115
21
126.123244
0
LINE
8
bottom_labelLayer
10
295.041174
20
124.3865252
11
295.1021115
21
124.3865252
0
ARC
8
bottom_labelLayer
10
297.7603566
20
121.7713269
40
3.8646033
50
74.2393237
51
90.5623889
0
ARC
8
bottom_labelLayer
10
298.0158972
20
122.7087857
40
2.8929917
50
38.5631283
51
74.067041
0
ARC
8
bottom_labelLayer
10
297.3582769
20
122.1974476
40
3.7259692
50
16.4709164
51
38.4075283
0
ARC
8
bottom_labelLayer
10
295.4637512
20
121.6033804
40
5.7112786
50
5.1338638
51
16.7973283
0
ARC
8
bottom_labelLayer
10
293.0720522
20
121.3493228
40
8.1162105
50
359.8779442
51
5.4093382
0
ARC
8
bottom_labelLayer
10
293.7746089
20
121.2882924
40
7.4137645
50
350.6562672
51
0.3380426
0
ARC
8
bottom_labelLayer
10
296.3591526
20
120.8486885
40
4.7921605
50
335.8305987
51
350.8254757
0
ARC
8
bottom_labelLayer
10
297.4960546
20
120.3579871
40
3.5540544
50
321.3161558
51
335.5435996
0
ARC
8
bottom_labelLayer
10
297.930706
20
120.0038132
40
2.9933998
50
274.0640076
51
321.4081005
0
ARC
8
bottom_labelLayer
10
297.7282172
20
121.2864734
40
4.288624
50
269.922604
51
275.5481489
0
ARC
8
bottom_labelLayer
10
297.7011016
20
120.8331545
40
3.8353605
50
255.7755284
51
270.3185343
0
ARC
8
bottom_labelLayer
10
297.5916488
20
120.3468746
40
3.3371218
50
245.9801657
51
255.5455901
0
ARC
8
bottom_labelLayer
10
297.3796563
20
119.8538824
40
2.8005371
50
215.5850267
51
245.836156
0
ARC
8
bottom_labelLayer
10
268.7394071
20
126.1009513
40
26.3627139
50
358.1123224
51
0.0484501
0
ARC
8
bottom_labelLayer
10
276.0765293
20
125.8546262
40
19.0214598
50
355.7238499
51
358.1258921
0
ARC
8
bottom_labelLayer
10
279.2948394
20
125.6336626
40
15.7956451
50
355.4715266
51
355.6526803
0
ARC
8
bottom_labelLayer
10
297.4602615
20
122.7421236
40
2.8748788
50
95.1835132
51
145.1108961
0
ARC
8
bottom_labelLayer
10
297.7129524
20
121.3171626
40
4.3185916
50
89.8743381
51
96.8145157
0
ARC
8
bottom_labelLayer
10
297.5131404
20
121.0238216
40
3.5532319
50
89.5731502
51
100.7324024
0
ARC
8
bottom_labelLayer
10
297.2501025
20
122.3527896
40
2.1985544
50
100.4469489
51
119.6700793
0
ARC
8
bottom_labelLayer
10
297.0061865
20
122.8088187
40
1.6816323
50
120.1402881
51
142.4249122
0
ARC
8
bottom_labelLayer
10
297.4097266
20
122.5418631
40
2.1645247
50
143.3382321
51
161.2559685
0
ARC
8
bottom_labelLayer
10
299.0972603
20
121.9427347
40
3.9551615
50
160.8926597
51
171.2334009
0
ARC
8
bottom_labelLayer
10
301.9143699
20
121.4882722
40
6.8086532
50
171.0667944
51
177.8456862
0
ARC
8
bottom_labelLayer
10
304.8442997
20
121.3392606
40
9.7421908
50
177.6176879
51
180.0425069
0
ARC
8
bottom_labelLayer
10
303.4624984
20
121.299387
40
8.3604506
50
179.7762697
51
185.7075348
0
ARC
8
bottom_labelLayer
10
300.166268
20
120.9597561
40
5.046795
50
185.5924725
51
194.2050731
0
ARC
8
bottom_labelLayer
10
298.0547398
20
120.4117403
40
2.8653802
50
193.9430322
51
208.0218546
0
ARC
8
bottom_labelLayer
10
297.2004224
20
119.9771251
40
1.9071122
50
208.5536501
51
217.5604737
0
ARC
8
bottom_labelLayer
10
297.1308075
20
119.9481697
40
1.8343798
50
218.1690551
51
253.8047029
0
ARC
8
bottom_labelLayer
10
297.4710485
20
120.9971694
40
2.9368477
50
253.1382476
51
266.8483128
0
ARC
8
bottom_labelLayer
10
297.5664608
20
122.1224246
40
4.0657839
50
266.3776015
51
270.0510069
0
ARC
8
bottom_labelLayer
10
297.597053
20
120.5771718
40
2.5206737
50
269.3868897
51
285.8630723
0
ARC
8
bottom_labelLayer
10
297.7843226
20
119.9003532
40
1.8184483
50
286.016301
51
326.8497317
0
ARC
8
bottom_labelLayer
10
296.8804586
20
120.4991298
40
2.9026405
50
326.710505
51
343.6661723
0
ARC
8
bottom_labelLayer
10
295.1884633
20
121.0161467
40
4.6717923
50
343.417156
51
353.6368949
0
ARC
8
bottom_labelLayer
10
292.6329307
20
121.3193773
40
7.245211
50
353.4934777
51
0.220558
0
ARC
8
bottom_labelLayer
10
292.4076715
20
121.3775077
40
7.4704778
50
359.768068
51
6.30953
0
ARC
8
bottom_labelLayer
10
295.2216333
20
121.7004282
40
4.6380869
50
6.1648577
51
16.0396318
0
ARC
8
bottom_labelLayer
10
297.0343547
20
122.2346349
40
2.7483593
50
15.7779665
51
32.0151232
0
ARC
8
bottom_labelLayer
10
297.5994051
20
122.5581943
40
2.0978673
50
32.7036305
51
35.524095
0
ARC
8
bottom_labelLayer
10
297.8063733
20
122.7052929
40
1.843951
50
35.5408284
51
79.8011211
0
ARC
8
bottom_labelLayer
10
297.5587494
20
121.6525923
40
2.9244252
50
78.67814
51
90.3749549
0
ARC
8
bottom_labelLayer
10
304.0718151
20
121.2880023
40
6.5314214
50
349.1761882
51
0.3862547
0
ARC
8
bottom_labelLayer
10
306.2707954
20
120.8496304
40
4.2892772
50
330.2507011
51
349.4116559
0
ARC
8
bottom_labelLayer
10
306.9475284
20
120.4978903
40
3.5273299
50
318.1439708
51
329.7566299
0
ARC
8
bottom_labelLayer
10
307.069666
20
120.4000091
40
3.3710576
50
278.8959215
51
317.9979124
0
ARC
8
bottom_labelLayer
10
306.7549572
20
121.9078125
40
4.9100056
50
269.7502745
51
279.8033126
0
ARC
8
bottom_labelLayer
10
306.7039163
20
121.0582616
40
4.0605164
50
253.5437047
51
270.4182457
0
ARC
8
bottom_labelLayer
10
306.5687507
20
120.5354033
40
3.5208346
50
238.8115597
51
253.2428314
0
ARC
8
bottom_labelLayer
10
306.5251266
20
120.4476751
40
3.4232046
50
207.7946944
51
238.6757951
0
ARC
8
bottom_labelLayer
10
307.1512024
20
120.8311017
40
4.1561087
50
205.656021
51
208.4460421
0
ARC
8
bottom_labelLayer
10
307.6332226
20
121.0319353
40
4.6776427
50
188.9102365
51
205.3171466
0
ARC
8
bottom_labelLayer
10
309.2580771
20
121.307133
40
6.3255457
50
179.7744587
51
189.0932776
0
ARC
8
bottom_labelLayer
10
309.4977675
20
121.3765013
40
6.5653378
50
169.2442961
51
180.3880779
0
ARC
8
bottom_labelLayer
10
307.2682315
20
121.8171997
40
4.2927599
50
150.7111521
51
169.469543
0
ARC
8
bottom_labelLayer
10
306.5565034
20
122.1826963
40
3.4933341
50
138.1759715
51
150.2287255
0
ARC
8
bottom_labelLayer
10
306.4381012
20
122.2735556
40
3.344531
50
99.1759412
51
137.9832811
0
ARC
8
bottom_labelLayer
10
306.7639616
20
120.7400154
40
4.9110165
50
89.7326476
51
100.0759764
0
ARC
8
bottom_labelLayer
10
306.8290879
20
121.4023048
40
4.2488832
50
73.5222658
51
90.5692167
0
ARC
8
bottom_labelLayer
10
307.078261
20
122.3076131
40
3.310128
50
41.1445605
51
73.2133888
0
ARC
8
bottom_labelLayer
10
306.6026128
20
121.8987988
40
3.937303
50
13.5014345
51
41.070351
0
ARC
8
bottom_labelLayer
10
304.7649485
20
121.4179062
40
5.8365829
50
1.12772
51
13.8800048
0
ARC
8
bottom_labelLayer
10
303.1819663
20
121.3330822
40
7.4211219
50
359.9918999
51
1.5419562
0
ARC
8
bottom_labelLayer
10
310.6458187
20
121.2991714
40
6.4031665
50
179.7059517
51
187.9160664
0
ARC
8
bottom_labelLayer
10
308.2973343
20
120.9618148
40
4.0306135
50
187.7639187
51
200.0976864
0
ARC
8
bottom_labelLayer
10
307.0035649
20
120.4877755
40
2.652734
50
200.0845788
51
216.9131646
0
ARC
8
bottom_labelLayer
10
306.5311279
20
120.1504329
40
2.0724367
50
217.3009475
51
261.7099069
0
ARC
8
bottom_labelLayer
10
306.7504514
20
121.1970321
40
3.140419
50
260.5033422
51
270.2476565
0
ARC
8
bottom_labelLayer
10
306.7923124
20
120.9935088
40
2.9370026
50
269.4481656
51
284.7255577
0
ARC
8
bottom_labelLayer
10
307.0248178
20
120.1312197
40
2.0439433
50
284.566227
51
322.633392
0
ARC
8
bottom_labelLayer
10
306.4812097
20
120.5239532
40
2.7143992
50
323.0089181
51
342.6390464
0
ARC
8
bottom_labelLayer
10
304.9263721
20
121.0321184
40
4.350087
50
342.3615743
51
353.7537631
0
ARC
8
bottom_labelLayer
10
302.6324937
20
121.308617
40
6.6604793
50
353.5362993
51
0.2014337
0
ARC
8
bottom_labelLayer
10
302.9839345
20
121.3642355
40
6.3090796
50
359.7075526
51
7.8972666
0
ARC
8
bottom_labelLayer
10
305.2944928
20
121.6954751
40
3.9749372
50
7.7439895
51
20.0690206
0
ARC
8
bottom_labelLayer
10
306.582026
20
122.1679512
40
2.6034527
50
20.0257126
51
37.43504
0
ARC
8
bottom_labelLayer
10
307.0092236
20
122.4710841
40
2.0800633
50
37.9577574
51
80.4006287
0
ARC
8
bottom_labelLayer
10
306.7664621
20
121.3879024
40
3.1891014
50
79.3453624
51
90.3174788
0
ARC
8
bottom_labelLayer
10
306.7215119
20
121.5678257
40
3.0092529
50
89.480598
51
103.8805
0
ARC
8
bottom_labelLayer
10
306.4686574
20
122.5306972
40
2.0138918
50
103.4685343
51
142.3118919
0
ARC
8
bottom_labelLayer
10
306.9602252
20
122.1849908
40
2.6143853
50
142.9025567
51
162.3749561
0
ARC
8
bottom_labelLayer
10
308.5091653
20
121.6688104
40
4.24697
50
162.0653108
51
173.1674807
0
ARC
8
bottom_labelLayer
10
310.9243399
20
121.3607671
40
6.6816652
50
173.0085997
51
180.246398
0
LINE
8
bottom_labelLayer
10
316.6587522
20
118.1937518
11
316.6587522
21
117.226369
0
LINE
8
bottom_labelLayer
10
312.9110959
20
119.5496112
11
312.9110959
21
124.5160174
0
LINE
8
bottom_labelLayer
10
312.9110959
20
124.5160174
11
311.7151975
21
124.5160174
0
LINE
8
bottom_labelLayer
10
311.7151975
20
124.5160174
11
311.7151975
21
125.1253924
0
LINE
8
bottom_labelLayer
10
311.7151975
20
125.1253924
11
312.9110959
21
125.6509783
0
LINE
8
bottom_labelLayer
10
312.9110959
20
125.6509783
11
313.444299
21
127.4334002
0
LINE
8
bottom_labelLayer
10
313.444299
20
127.4334002
11
314.175549
21
127.4334002
0
LINE
8
bottom_labelLayer
10
314.175549
20
127.4334002
11
314.175549
21
125.4986346
0
LINE
8
bottom_labelLayer
10
314.175549
20
125.4986346
11
316.5978147
21
125.4986346
0
LINE
8
bottom_labelLayer
10
316.5978147
20
125.4986346
11
316.5978147
21
124.5160174
0
LINE
8
bottom_labelLayer
10
316.5978147
20
124.5160174
11
314.175549
21
124.5160174
0
LINE
8
bottom_labelLayer
10
314.175549
20
124.5160174
11
314.175549
21
119.6029315
0
ARC
8
bottom_labelLayer
10
315.5248468
20
122.1940156
40
4.1526166
50
269.880337
51
278.3028561
0
ARC
8
bottom_labelLayer
10
315.5648742
20
121.8677731
40
3.8240208
50
278.4152797
51
279.008375
0
ARC
8
bottom_labelLayer
10
315.0984551
20
124.8475075
40
6.8400355
50
278.9589761
51
280.5104538
0
ARC
8
bottom_labelLayer
10
315.5424923
20
122.4649766
40
4.4164811
50
280.4847954
51
282.6268768
0
ARC
8
bottom_labelLayer
10
315.9318935
20
120.7349904
40
2.6432129
50
282.5877173
51
285.5793866
0
ARC
8
bottom_labelLayer
10
316.1277666
20
120.0146479
40
1.8967361
50
285.7240281
51
286.2570409
0
ARC
8
bottom_labelLayer
10
316.127148
20
118.3507409
40
1.2437102
50
287.9887604
51
295.3048329
0
ARC
8
bottom_labelLayer
10
315.8271431
20
119.2584032
40
2.1996599
50
283.3070226
51
288.1196769
0
ARC
8
bottom_labelLayer
10
315.5102428
20
120.5803301
40
3.5590369
50
280.0070622
51
283.3734315
0
ARC
8
bottom_labelLayer
10
315.2982467
20
121.7307604
40
4.7288118
50
279.1863881
51
280.1144255
0
ARC
8
bottom_labelLayer
10
315.1680862
20
122.4711532
40
5.4804977
50
275.5260737
51
279.2939631
0
ARC
8
bottom_labelLayer
10
315.3147573
20
120.9391989
40
3.941539
50
270.8932477
51
275.5483992
0
ARC
8
bottom_labelLayer
10
315.3331833
20
120.2380844
40
3.2402311
50
270.0031511
51
270.760738
0
ARC
8
bottom_labelLayer
10
315.282337
20
120.3000258
40
3.3025666
50
253.7847946
51
270.8852524
0
ARC
8
bottom_labelLayer
10
314.8910706
20
118.9656586
40
1.912024
50
190.381762
51
253.877242
0
ARC
8
bottom_labelLayer
10
316.8853558
20
119.504877
40
3.9745117
50
179.3551082
51
192.8477492
0
ARC
8
bottom_labelLayer
10
316.721691
20
119.587008
40
2.5461918
50
179.6416802
51
189.7506035
0
ARC
8
bottom_labelLayer
10
315.822832
20
119.4266845
40
1.6331754
50
189.5479346
51
205.7873718
0
ARC
8
bottom_labelLayer
10
315.4534438
20
119.2563483
40
1.2264929
50
206.1294578
51
221.4084079
0
ARC
8
bottom_labelLayer
10
315.4120248
20
119.22492
40
1.174647
50
221.5949173
51
262.3505168
0
ARC
8
bottom_labelLayer
10
315.5105321
20
119.7314924
40
1.6900938
50
261.3266669
51
270.1912666
0
LINE
8
bottom_labelLayer
10
322.1659787
20
118.1937518
11
322.1659787
21
117.226369
0
LINE
8
bottom_labelLayer
10
318.4183225
20
119.5496112
11
318.4183225
21
124.5160174
0
LINE
8
bottom_labelLayer
10
318.4183225
20
124.5160174
11
317.222424
21
124.5160174
0
LINE
8
bottom_labelLayer
10
317.222424
20
124.5160174
11
317.222424
21
125.1253924
0
LINE
8
bottom_labelLayer
10
317.222424
20
125.1253924
11
318.4183225
21
125.6509783
0
LINE
8
bottom_labelLayer
10
318.4183225
20
125.6509783
11
318.9515256
21
127.4334002
0
LINE
8
bottom_labelLayer
10
318.9515256
20
127.4334002
11
319.6827756
21
127.4334002
0
LINE
8
bottom_labelLayer
10
319.6827756
20
127.4334002
11
319.6827756
21
125.4986346
0
LINE
8
bottom_labelLayer
10
319.6827756
20
125.4986346
11
322.1050412
21
125.4986346
0
LINE
8
bottom_labelLayer
10
322.1050412
20
125.4986346
11
322.1050412
21
124.5160174
0
LINE
8
bottom_labelLayer
10
322.1050412
20
124.5160174
11
319.6827756
21
124.5160174
0
LINE
8
bottom_labelLayer
10
319.6827756
20
124.5160174
11
319.6827756
21
119.6029315
0
ARC
8
bottom_labelLayer
10
321.0320734
20
122.1940156
40
4.1526166
50
269.880337
51
278.3028561
0
ARC
8
bottom_labelLayer
10
321.0721008
20
121.8677731
40
3.8240208
50
278.4152797
51
279.008375
0
ARC
8
bottom_labelLayer
10
320.6056817
20
124.8475075
40
6.8400355
50
278.9589761
51
280.5104538
0
ARC
8
bottom_labelLayer
10
321.0497189
20
122.4649766
40
4.4164811
50
280.4847954
51
282.6268768
0
ARC
8
bottom_labelLayer
10
321.4391201
20
120.7349904
40
2.6432129
50
282.5877173
51
285.5793866
0
ARC
8
bottom_labelLayer
10
321.6349931
20
120.0146479
40
1.8967361
50
285.7240281
51
286.2570409
0
ARC
8
bottom_labelLayer
10
321.6343745
20
118.3507409
40
1.2437102
50
287.9887604
51
295.3048329
0
ARC
8
bottom_labelLayer
10
321.3343696
20
119.2584032
40
2.1996599
50
283.3070226
51
288.1196769
0
ARC
8
bottom_labelLayer
10
321.0174693
20
120.5803301
40
3.5590369
50
280.0070622
51
283.3734315
0
ARC
8
bottom_labelLayer
10
320.8054733
20
121.7307604
40
4.7288118
50
279.1863881
51
280.1144255
0
ARC
8
bottom_labelLayer
10
320.6753128
20
122.4711532
40
5.4804977
50
275.5260737
51
279.2939631
0
ARC
8
bottom_labelLayer
10
320.8219839
20
120.9391989
40
3.941539
50
270.8932477
51
275.5483992
0
ARC
8
bottom_labelLayer
10
320.8404099
20
120.2380844
40
3.2402311
50
270.0031511
51
270.760738
0
ARC
8
bottom_labelLayer
10
320.7895636
20
120.3000258
40
3.3025666
50
253.7847946
51
270.8852524
0
ARC
8
bottom_labelLayer
10
320.3982972
20
118.9656586
40
1.912024
50
190.381762
51
253.877242
0
ARC
8
bottom_labelLayer
10
322.3925824
20
119.504877
40
3.9745117
50
179.3551082
51
192.8477492
0
ARC
8
bottom_labelLayer
10
322.2289176
20
119.587008
40
2.5461918
50
179.6416802
51
189.7506035
0
ARC
8
bottom_labelLayer
10
321.3300585
20
119.4266845
40
1.6331754
50
189.5479346
51
205.7873718
0
ARC
8
bottom_labelLayer
10
320.9606703
20
119.2563483
40
1.2264929
50
206.1294578
51
221.4084079
0
ARC
8
bottom_labelLayer
10
320.9192514
20
119.22492
40
1.174647
50
221.5949173
51
262.3505168
0
ARC
8
bottom_labelLayer
10
321.0177587
20
119.7314924
40
1.6900938
50
261.3266669
51
270.1912666
0
ARC
8
bottom_labelLayer
10
324.5087292
20
121.2880023
40
6.5314214
50
349.1761882
51
0.3862547
0
ARC
8
bottom_labelLayer
10
326.7077095
20
120.8496304
40
4.2892772
50
330.2507011
51
349.4116559
0
ARC
8
bottom_labelLayer
10
327.3844424
20
120.4978903
40
3.5273299
50
318.1439708
51
329.7566299
0
ARC
8
bottom_labelLayer
10
327.50658
20
120.4000091
40
3.3710576
50
278.8959215
51
317.9979124
0
ARC
8
bottom_labelLayer
10
327.1918713
20
121.9078125
40
4.9100056
50
269.7502745
51
279.8033126
0
ARC
8
bottom_labelLayer
10
327.1408304
20
121.0582616
40
4.0605164
50
253.5437047
51
270.4182457
0
ARC
8
bottom_labelLayer
10
327.0056647
20
120.5354033
40
3.5208346
50
238.8115597
51
253.2428314
0
ARC
8
bottom_labelLayer
10
326.9620407
20
120.4476751
40
3.4232046
50
207.7946944
51
238.6757951
0
ARC
8
bottom_labelLayer
10
327.5881165
20
120.8311017
40
4.1561087
50
205.656021
51
208.4460421
0
ARC
8
bottom_labelLayer
10
328.0701367
20
121.0319353
40
4.6776427
50
188.9102365
51
205.3171466
0
ARC
8
bottom_labelLayer
10
329.6949912
20
121.307133
40
6.3255457
50
179.7744587
51
189.0932776
0
ARC
8
bottom_labelLayer
10
329.9346815
20
121.3765013
40
6.5653378
50
169.2442961
51
180.3880779
0
ARC
8
bottom_labelLayer
10
327.7051455
20
121.8171997
40
4.2927599
50
150.7111521
51
169.469543
0
ARC
8
bottom_labelLayer
10
326.9934174
20
122.1826963
40
3.4933341
50
138.1759715
51
150.2287255
0
ARC
8
bottom_labelLayer
10
326.8750152
20
122.2735556
40
3.344531
50
99.1759412
51
137.9832811
0
ARC
8
bottom_labelLayer
10
327.2008756
20
120.7400154
40
4.9110165
50
89.7326476
51
100.0759764
0
ARC
8
bottom_labelLayer
10
327.2660019
20
121.4023048
40
4.2488832
50
73.5222658
51
90.5692167
0
ARC
8
bottom_labelLayer
10
327.515175
20
122.3076131
40
3.310128
50
41.1445605
51
73.2133888
0
ARC
8
bottom_labelLayer
10
327.0395269
20
121.8987988
40
3.937303
50
13.5014345
51
41.070351
0
ARC
8
bottom_labelLayer
10
325.2018626
20
121.4179062
40
5.8365829
50
1.12772
51
13.8800048
0
ARC
8
bottom_labelLayer
10
323.6188803
20
121.3330822
40
7.4211219
50
359.9918999
51
1.5419562
0
ARC
8
bottom_labelLayer
10
331.0827328
20
121.2991714
40
6.4031665
50
179.7059517
51
187.9160664
0
ARC
8
bottom_labelLayer
10
328.7342483
20
120.9618148
40
4.0306135
50
187.7639187
51
200.0976864
0
ARC
8
bottom_labelLayer
10
327.440479
20
120.4877755
40
2.652734
50
200.0845788
51
216.9131646
0
ARC
8
bottom_labelLayer
10
326.968042
20
120.1504329
40
2.0724367
50
217.3009475
51
261.7099069
0
ARC
8
bottom_labelLayer
10
327.1873655
20
121.1970321
40
3.140419
50
260.5033422
51
270.2476565
0
ARC
8
bottom_labelLayer
10
327.2292265
20
120.9935088
40
2.9370026
50
269.4481656
51
284.7255577
0
ARC
8
bottom_labelLayer
10
327.4617318
20
120.1312197
40
2.0439433
50
284.566227
51
322.633392
0
ARC
8
bottom_labelLayer
10
326.9181238
20
120.5239532
40
2.7143992
50
323.0089181
51
342.6390464
0
ARC
8
bottom_labelLayer
10
325.3632861
20
121.0321184
40
4.350087
50
342.3615743
51
353.7537631
0
ARC
8
bottom_labelLayer
10
323.0694078
20
121.308617
40
6.6604793
50
353.5362993
51
0.2014337
0
ARC
8
bottom_labelLayer
10
323.4208485
20
121.3642355
40
6.3090796
50
359.7075526
51
7.8972666
0
ARC
8
bottom_labelLayer
10
325.7314069
20
121.6954751
40
3.9749372
50
7.7439895
51
20.0690206
0
ARC
8
bottom_labelLayer
10
327.0189401
20
122.1679512
40
2.6034527
50
20.0257126
51
37.43504
0
ARC
8
bottom_labelLayer
10
327.4461376
20
122.4710841
40
2.0800633
50
37.9577574
51
80.4006287
0
ARC
8
bottom_labelLayer
10
327.2033762
20
121.3879024
40
3.1891014
50
79.3453624
51
90.3174788
0
ARC
8
bottom_labelLayer
10
327.158426
20
121.5678257
40
3.0092529
50
89.480598
51
103.8805
0
ARC
8
bottom_labelLayer
10
326.9055714
20
122.5306972
40
2.0138918
50
103.4685343
51
142.3118919
0
ARC
8
bottom_labelLayer
10
327.3971392
20
122.1849908
40
2.6143853
50
142.9025567
51
162.3749561
0
ARC
8
bottom_labelLayer
10
328.9460794
20
121.6688104
40
4.24697
50
162.0653108
51
173.1674807
0
ARC
8
bottom_labelLayer
10
331.361254
20
121.3607671
40
6.6816652
50
173.0085997
51
180.246398
0
LINE
8
bottom_labelLayer
10
345.1622678
20
117.1501971
11
343.8978147
21
117.1501971
0
LINE
8
bottom_labelLayer
10
343.8978147
20
117.1501971
11
343.8978147
21
122.5812518
0
LINE
8
bottom_labelLayer
10
339.8378537
20
121.8119158
11
339.8378537
21
117.1501971
0
LINE
8
bottom_labelLayer
10
339.8378537
20
117.1501971
11
338.5734006
21
117.1501971
0
LINE
8
bottom_labelLayer
10
338.5734006
20
117.1501971
11
338.5734006
21
122.5812518
0
LINE
8
bottom_labelLayer
10
334.5210568
20
121.5300799
11
334.5210568
21
117.1501971
0
LINE
8
bottom_labelLayer
10
334.5210568
20
117.1501971
11
333.2566037
21
117.1501971
0
LINE
8
bottom_labelLayer
10
333.2566037
20
117.1501971
11
333.2566037
21
125.4986346
0
LINE
8
bottom_labelLayer
10
333.2566037
20
125.4986346
11
334.284924
21
125.4986346
0
LINE
8
bottom_labelLayer
10
334.284924
20
125.4986346
11
334.4905881
21
124.3560565
0
LINE
8
bottom_labelLayer
10
334.4905881
20
124.3560565
11
334.5515256
21
124.3560565
0
LINE
8
bottom_labelLayer
10
339.5788693
20
124.2341815
11
339.6398068
21
124.2341815
0
LINE
8
bottom_labelLayer
10
345.1622678
20
122.5964862
11
345.1622678
21
117.1501971
0
ARC
8
bottom_labelLayer
10
340.1676168
20
122.6011185
40
3.7302508
50
359.6948508
51
8.1471364
0
ARC
8
bottom_labelLayer
10
341.5415932
20
122.8044501
40
2.3413353
50
7.986469
51
20.7949614
0
ARC
8
bottom_labelLayer
10
342.3010783
20
123.0953805
40
1.5280398
50
20.7071329
51
40.0217178
0
ARC
8
bottom_labelLayer
10
342.4676971
20
123.2043964
40
1.3305475
50
41.0408061
51
73.1792688
0
ARC
8
bottom_labelLayer
10
342.2266081
20
122.4752223
40
2.0983829
50
72.6395311
51
86.256827
0
ARC
8
bottom_labelLayer
10
342.1493695
20
121.6417227
40
2.9352343
50
85.8145096
51
90.0684757
0
ARC
8
bottom_labelLayer
10
342.120997
20
121.3234093
40
3.2536406
50
89.5621373
51
101.2961597
0
ARC
8
bottom_labelLayer
10
341.8759438
20
122.4965682
40
2.0552341
50
101.00324
51
121.7840459
0
ARC
8
bottom_labelLayer
10
341.6896407
20
122.8291719
40
1.674463
50
122.3597223
51
140.2884278
0
ARC
8
bottom_labelLayer
10
342.0248157
20
122.5834086
40
2.0894779
50
140.9765116
51
161.169955
0
ARC
8
bottom_labelLayer
10
343.2875096
20
122.1340447
40
3.4296762
50
160.8731844
51
172.5272312
0
ARC
8
bottom_labelLayer
10
345.3973901
20
121.8426533
40
5.5595528
50
172.3776314
51
180.1829787
0
ARC
8
bottom_labelLayer
10
346.8522798
20
121.8119236
40
7.0144261
50
179.8940178
51
180.0000636
0
ARC
8
bottom_labelLayer
10
334.8432027
20
122.6011185
40
3.7302508
50
359.6948508
51
8.1471364
0
ARC
8
bottom_labelLayer
10
336.2171791
20
122.8044501
40
2.3413353
50
7.986469
51
20.7949614
0
ARC
8
bottom_labelLayer
10
336.9766642
20
123.0953805
40
1.5280398
50
20.7071329
51
40.0217178
0
ARC
8
bottom_labelLayer
10
337.1467482
20
123.2067918
40
1.3263612
50
41.0610441
51
72.8993752
0
ARC
8
bottom_labelLayer
10
336.9010883
20
122.4754317
40
2.0977172
50
72.3601382
51
85.9561514
0
ARC
8
bottom_labelLayer
10
336.8179286
20
121.6159452
40
2.9610126
50
85.5238324
51
90.0793017
0
ARC
8
bottom_labelLayer
10
336.7895671
20
121.4364997
40
3.140549
50
89.5573419
51
101.483194
0
ARC
8
bottom_labelLayer
10
336.5485177
20
122.5658729
40
1.9858267
50
101.1546161
51
123.0655889
0
ARC
8
bottom_labelLayer
10
336.384673
20
122.8512853
40
1.6573466
50
123.7020898
51
142.3021706
0
ARC
8
bottom_labelLayer
10
336.7684804
20
122.5909079
40
2.1204469
50
143.0769919
51
161.3913877
0
ARC
8
bottom_labelLayer
10
338.3156059
20
122.0444996
40
3.7611269
50
161.0234645
51
171.4468984
0
ARC
8
bottom_labelLayer
10
340.8767757
20
121.643298
40
6.3535013
50
171.3041693
51
178.3501781
0
ARC
8
bottom_labelLayer
10
343.3242106
20
121.533976
40
8.8031547
50
178.0975613
51
180.0253581
0
ARC
8
bottom_labelLayer
10
336.6936791
20
123.0963648
40
2.4850845
50
117.1209438
51
149.5423772
0
ARC
8
bottom_labelLayer
10
336.947304
20
122.6455807
40
3.0019915
50
93.8343231
51
117.5072231
0
ARC
8
bottom_labelLayer
10
337.0173526
20
122.0251525
40
3.6258264
50
89.9661559
51
94.2831516
0
ARC
8
bottom_labelLayer
10
337.059328
20
121.5113459
40
4.1398241
50
77.5572261
51
90.5513122
0
ARC
8
bottom_labelLayer
10
337.4434578
20
123.1635598
40
2.4437263
50
52.7027024
51
78.0053786
0
ARC
8
bottom_labelLayer
10
337.5803166
20
123.4181889
40
2.1587165
50
22.2097873
51
51.4970591
0
ARC
8
bottom_labelLayer
10
341.9304188
20
122.921427
40
2.6401188
50
119.4041784
51
150.1828887
0
ARC
8
bottom_labelLayer
10
342.2235217
20
122.4756237
40
3.1726063
50
118.2585547
51
120.062823
0
ARC
8
bottom_labelLayer
10
342.2223862
20
122.443614
40
3.2003043
50
95.863506
51
117.9693238
0
ARC
8
bottom_labelLayer
10
342.3306996
20
121.6604277
40
3.9905547
50
89.9197161
51
96.2617555
0
ARC
8
bottom_labelLayer
10
342.3654693
20
121.2557667
40
4.3953085
50
79.9360897
51
90.3803591
0
ARC
8
bottom_labelLayer
10
342.6583374
20
122.8418993
40
2.782426
50
62.9723132
51
80.1665276
0
ARC
8
bottom_labelLayer
10
342.9644904
20
123.4700053
40
2.0838337
50
44.2289811
51
62.6229156
0
ARC
8
bottom_labelLayer
10
342.8734301
20
123.4297758
40
2.1774213
50
19.5612207
51
43.3161157
0
ARC
8
bottom_labelLayer
10
341.5509854
20
122.9330651
40
3.5899347
50
7.5041972
51
19.9645323
0
ARC
8
bottom_labelLayer
10
339.3626954
20
122.625766
40
5.7996462
50
359.7107383
51
7.6907083
0
ENDSEC
0
EOF